  0
SECTION
  2
HEADER
  9
$ACADVER
  1
AC1015
  9
$ACADMAINTVER
 70
     6
  9
$DWGCODEPAGE
  3
ANSI_1252
  9
$INSBASE
 10
0.0
 20
0.0
 30
0.0
  9
$EXTMIN
 10
-32.5
 20
-28.0
 30
0.0
  9
$EXTMAX
 10
32.5
 20
28.0
 30
0.0
  9
$LIMMIN
 10
0.0
 20
0.0
  9
$LIMMAX
 10
420.0
 20
297.0
  9
$ORTHOMODE
 70
     0
  9
$REGENMODE
 70
     1
  9
$FILLMODE
 70
     1
  9
$QTEXTMODE
 70
     0
  9
$MIRRTEXT
 70
     1
  9
$LTSCALE
 40
1.0
  9
$ATTMODE
 70
     1
  9
$TEXTSIZE
 40
3.5
  9
$TRACEWID
 40
1.0
  9
$TEXTSTYLE
  7
Standard
  9
$CLAYER
  8
0
  9
$CELTYPE
  6
ByLayer
  9
$CECOLOR
 62
   256
  9
$CELTSCALE
 40
1.0
  9
$DISPSILH
 70
     0
  9
$DIMSCALE
 40
1.0
  9
$DIMASZ
 40
3.302
  9
$DIMEXO
 40
1.0
  9
$DIMDLI
 40
3.75
  9
$DIMRND
 40
0.0
  9
$DIMDLE
 40
0.0
  9
$DIMEXE
 40
1.0
  9
$DIMTP
 40
0.0
  9
$DIMTM
 40
0.0
  9
$DIMTXT
 40
3.5
  9
$DIMCEN
 40
2.5
  9
$DIMTSZ
 40
0.0
  9
$DIMTOL
 70
     0
  9
$DIMLIM
 70
     0
  9
$DIMTIH
 70
     1
  9
$DIMTOH
 70
     1
  9
$DIMSE1
 70
     0
  9
$DIMSE2
 70
     0
  9
$DIMTAD
 70
     1
  9
$DIMZIN
 70
     1
  9
$DIMBLK
  1

  9
$DIMASO
 70
     1
  9
$DIMSHO
 70
     1
  9
$DIMPOST
  1

  9
$DIMAPOST
  1

  9
$DIMALT
 70
     0
  9
$DIMALTD
 70
     3
  9
$DIMALTF
 40
0.0393700787
  9
$DIMLFAC
 40
1.0
  9
$DIMTOFL
 70
     1
  9
$DIMTVP
 40
0.0
  9
$DIMTIX
 70
     0
  9
$DIMSOXD
 70
     0
  9
$DIMSAH
 70
     0
  9
$DIMBLK1
  1

  9
$DIMBLK2
  1

  9
$DIMSTYLE
  2
ISO-25
  9
$DIMCLRD
 70
     0
  9
$DIMCLRE
 70
     0
  9
$DIMCLRT
 70
     0
  9
$DIMTFAC
 40
1.0
  9
$DIMGAP
 40
1.524
  9
$DIMJUST
 70
     0
  9
$DIMSD1
 70
     0
  9
$DIMSD2
 70
     0
  9
$DIMTOLJ
 70
     0
  9
$DIMTZIN
 70
     1
  9
$DIMALTZ
 70
     0
  9
$DIMALTTZ
 70
     0
  9
$DIMUPT
 70
     0
  9
$DIMDEC
 70
     2
  9
$DIMTDEC
 70
     2
  9
$DIMALTU
 70
     2
  9
$DIMALTTD
 70
     3
  9
$DIMTXSTY
  7
Standard
  9
$DIMAUNIT
 70
     0
  9
$DIMADEC
 70
     2
  9
$DIMALTRND
 40
0.0
  9
$DIMAZIN
 70
     0
  9
$DIMDSEP
 70
    44
  9
$DIMATFIT
 70
     3
  9
$DIMFRAC
 70
     0
  9
$DIMLDRBLK
  1

  9
$DIMLUNIT
 70
     2
  9
$DIMLWD
 70
    -2
  9
$DIMLWE
 70
    -2
  9
$DIMTMOVE
 70
     0
  9
$LUNITS
 70
     2
  9
$LUPREC
 70
     2
  9
$SKETCHINC
 40
1.0
  9
$FILLETRAD
 40
10.0
  9
$AUNITS
 70
     0
  9
$AUPREC
 70
     2
  9
$MENU
  1
.
  9
$ELEVATION
 40
0.0
  9
$PELEVATION
 40
0.0
  9
$THICKNESS
 40
0.0
  9
$LIMCHECK
 70
     0
  9
$CHAMFERA
 40
0.0
  9
$CHAMFERB
 40
0.0
  9
$CHAMFERC
 40
0.0
  9
$CHAMFERD
 40
0.0
  9
$SKPOLY
 70
     0
  9
$TDCREATE
 40
2459327.385345648
  9
$TDUCREATE
 40
2459327.343678982
  9
$TDUPDATE
 40
2459327.385466539
  9
$TDUUPDATE
 40
2459327.343799873
  9
$TDINDWG
 40
0.0000000116
  9
$TDUSRTIMER
 40
0.0000000116
  9
$USRTIMER
 70
     1
  9
$ANGBASE
 50
0.0
  9
$ANGDIR
 70
     0
  9
$PDMODE
 70
     0
  9
$PDSIZE
 40
-1.0
  9
$PLINEWID
 40
0.0
  9
$SPLFRAME
 70
     0
  9
$SPLINETYPE
 70
     6
  9
$SPLINESEGS
 70
     8
  9
$HANDSEED
  5
34F
  9
$SURFTAB1
 70
     6
  9
$SURFTAB2
 70
     6
  9
$SURFTYPE
 70
     6
  9
$SURFU
 70
     6
  9
$SURFV
 70
     6
  9
$UCSBASE
  2

  9
$UCSNAME
  2

  9
$UCSORG
 10
0.0
 20
0.0
 30
0.0
  9
$UCSXDIR
 10
1.0
 20
0.0
 30
0.0
  9
$UCSYDIR
 10
0.0
 20
1.0
 30
0.0
  9
$UCSORTHOREF
  2

  9
$UCSORTHOVIEW
 70
     0
  9
$UCSORGTOP
 10
0.0
 20
0.0
 30
0.0
  9
$UCSORGBOTTOM
 10
0.0
 20
0.0
 30
0.0
  9
$UCSORGLEFT
 10
0.0
 20
0.0
 30
0.0
  9
$UCSORGRIGHT
 10
0.0
 20
0.0
 30
0.0
  9
$UCSORGFRONT
 10
0.0
 20
0.0
 30
0.0
  9
$UCSORGBACK
 10
0.0
 20
0.0
 30
0.0
  9
$PUCSBASE
  2

  9
$PUCSNAME
  2

  9
$PUCSORG
 10
0.0
 20
0.0
 30
0.0
  9
$PUCSXDIR
 10
1.0
 20
0.0
 30
0.0
  9
$PUCSYDIR
 10
0.0
 20
1.0
 30
0.0
  9
$PUCSORTHOREF
  2

  9
$PUCSORTHOVIEW
 70
     0
  9
$PUCSORGTOP
 10
0.0
 20
0.0
 30
0.0
  9
$PUCSORGBOTTOM
 10
0.0
 20
0.0
 30
0.0
  9
$PUCSORGLEFT
 10
0.0
 20
0.0
 30
0.0
  9
$PUCSORGRIGHT
 10
0.0
 20
0.0
 30
0.0
  9
$PUCSORGFRONT
 10
0.0
 20
0.0
 30
0.0
  9
$PUCSORGBACK
 10
0.0
 20
0.0
 30
0.0
  9
$USERI1
 70
     0
  9
$USERI2
 70
     0
  9
$USERI3
 70
     0
  9
$USERI4
 70
     0
  9
$USERI5
 70
     0
  9
$USERR1
 40
0.0
  9
$USERR2
 40
0.0
  9
$USERR3
 40
0.0
  9
$USERR4
 40
0.0
  9
$USERR5
 40
0.0
  9
$WORLDVIEW
 70
     1
  9
$SHADEDGE
 70
     3
  9
$SHADEDIF
 70
    70
  9
$TILEMODE
 70
     0
  9
$MAXACTVP
 70
    64
  9
$PINSBASE
 10
0.0
 20
0.0
 30
0.0
  9
$PLIMCHECK
 70
     0
  9
$PEXTMIN
 10
-32.5
 20
-28.0
 30
0.0
  9
$PEXTMAX
 10
32.5
 20
28.0
 30
0.0
  9
$PLIMMIN
 10
0.0
 20
0.0
  9
$PLIMMAX
 10
0.0
 20
0.0
  9
$UNITMODE
 70
     0
  9
$VISRETAIN
 70
     1
  9
$PLINEGEN
 70
     0
  9
$PSLTSCALE
 70
     1
  9
$TREEDEPTH
 70
  3020
  9
$CMLSTYLE
  2
Standard
  9
$CMLJUST
 70
     0
  9
$CMLSCALE
 40
20.0
  9
$PROXYGRAPHICS
 70
     1
  9
$MEASUREMENT
 70
     1
  9
$CELWEIGHT
370
    -1
  9
$ENDCAPS
280
     0
  9
$JOINSTYLE
280
     0
  9
$LWDISPLAY
290
     1
  9
$INSUNITS
 70
     4
  9
$HYPERLINKBASE
  1

  9
$STYLESHEET
  1

  9
$XEDIT
290
     1
  9
$CEPSNTYPE
380
     0
  9
$PSTYLEMODE
290
     1
  9
$FINGERPRINTGUID
  2
{7bc3ab96-4276-414f-9725-6039664f6540}
  9
$VERSIONGUID
  2
{FAEB1C32-E019-11D5-929B-00C0DF256EC4}
  9
$EXTNAMES
290
     1
  9
$PSVPSCALE
 40
0.0
  9
$OLESTARTUP
290
     0
  0
ENDSEC
  0
SECTION
  2
CLASSES
  0
CLASS
  1
ACDBDICTIONARYWDFLT
  2
AcDbDictionaryWithDefault
  3
ObjectDBX Classes
 90
        0
280
     0
281
     0
  0
CLASS
  1
VISUALSTYLE
  2
AcDbVisualStyle
  3
ObjectDBX Classes
 90
     4095
280
     0
281
     0
  0
CLASS
  1
MATERIAL
  2
AcDbMaterial
  3
ObjectDBX Classes
 90
     1153
280
     0
281
     0
  0
CLASS
  1
SCALE
  2
AcDbScale
  3
ObjectDBX Classes
 90
     1153
280
     0
281
     0
  0
CLASS
  1
TABLESTYLE
  2
AcDbTableStyle
  3
ObjectDBX Classes
 90
     4095
280
     0
281
     0
  0
CLASS
  1
MLEADERSTYLE
  2
AcDbMLeaderStyle
  3
ACDB_MLEADERSTYLE_CLASS
 90
     4095
280
     0
281
     0
  0
CLASS
  1
SUN
  2
AcDbSun
  3
SCENEOE
 90
     1153
280
     0
281
     0
  0
CLASS
  1
ACDBPLACEHOLDER
  2
AcDbPlaceHolder
  3
ObjectDBX Classes
 90
        0
280
     0
281
     0
  0
CLASS
  1
LAYOUT
  2
AcDbLayout
  3
ObjectDBX Classes
 90
        0
280
     0
281
     0
  0
ENDSEC
  0
SECTION
  2
TABLES
  0
TABLE
  2
VPORT
  5
8
330
0
100
AcDbSymbolTable
 70
     1
  0
VPORT
  5
29
330
8
100
AcDbSymbolTableRecord
100
AcDbViewportTableRecord
  2
*Active
 70
     0
 10
0.0
 20
0.0
 11
1.0
 21
1.0
 12
0.0
 22
0.0
 13
0.0
 23
0.0
 14
10.0
 24
10.0
 15
10.0
 25
10.0
 16
0.0
 26
0.0
 36
1.0
 17
0.0
 27
0.0
 37
0.0
 40
57.12
 41
1.1607142857
 42
50.0
 43
0.0
 44
0.0
 50
0.0
 51
0.0
 71
     0
 72
   100
 73
     1
 74
     3
 75
     0
 76
     0
 77
     0
 78
     0
281
     0
 65
     1
110
0.0
120
0.0
130
0.0
111
1.0
121
0.0
131
0.0
112
0.0
122
1.0
132
0.0
 79
     0
146
0.0
  0
ENDTAB
  0
TABLE
  2
LTYPE
  5
5
330
0
100
AcDbSymbolTable
 70
     6
  0
LTYPE
  5
14
330
5
100
AcDbSymbolTableRecord
100
AcDbLinetypeTableRecord
  2
ByBlock
 70
     0
  3

 72
    65
 73
     0
 40
0.0
  0
LTYPE
  5
15
330
5
100
AcDbSymbolTableRecord
100
AcDbLinetypeTableRecord
  2
ByLayer
 70
     0
  3

 72
    65
 73
     0
 40
0.0
  0
LTYPE
  5
16
330
5
100
AcDbSymbolTableRecord
100
AcDbLinetypeTableRecord
  2
Continuous
 70
     0
  3
Solid line
 72
    65
 73
     0
 40
0.0
  0
LTYPE
  5
6E
330
5
100
AcDbSymbolTableRecord
100
AcDbLinetypeTableRecord
  2
HIDDEN
 70
     0
  3
Hidden __ __ __ __ __ __ __ __ __ __ __ __ __ __
 72
    65
 73
     2
 40
1.905
 49
1.27
 74
     0
 49
-0.635
 74
     0
  0
LTYPE
  5
6F
330
5
100
AcDbSymbolTableRecord
100
AcDbLinetypeTableRecord
  2
PHANTOM
 70
     0
  3
Phantom ______  __  __  ______  __  __  ______
 72
    65
 73
     6
 40
12.7
 49
6.35
 74
     0
 49
-1.27
 74
     0
 49
1.27
 74
     0
 49
-1.27
 74
     0
 49
1.27
 74
     0
 49
-1.27
 74
     0
  0
LTYPE
  5
70
330
5
100
AcDbSymbolTableRecord
100
AcDbLinetypeTableRecord
  2
CENTER
 70
     0
  3
Center ____ _ ____ _ ____ _ ____ _ ____ _ ____
 72
    65
 73
     4
 40
10.16
 49
6.35
 74
     0
 49
-1.27
 74
     0
 49
1.27
 74
     0
 49
-1.27
 74
     0
  0
LTYPE
  5
71
330
5
100
AcDbSymbolTableRecord
100
AcDbLinetypeTableRecord
  2
CENTERX2
 70
     0
  3
Center (2x) ________  __  ________  __  _____
 72
    65
 73
     4
 40
20.32
 49
12.7
 74
     0
 49
-2.54
 74
     0
 49
2.54
 74
     0
 49
-2.54
 74
     0
  0
LTYPE
  5
72
330
5
100
AcDbSymbolTableRecord
100
AcDbLinetypeTableRecord
  2
DOT2
 70
     0
  3
Dot (.5x) ........................................
 72
    65
 73
     2
 40
0.635
 49
0.0
 74
     0
 49
-0.635
 74
     0
  0
ENDTAB
  0
TABLE
  2
LAYER
  5
2
330
0
100
AcDbSymbolTable
 70
     1
  0
LAYER
  5
10
330
2
100
AcDbSymbolTableRecord
100
AcDbLayerTableRecord
  2
0
 70
     0
 62
     7
  6
Continuous
370
    -3
390
F
  0
ENDTAB
  0
TABLE
  2
STYLE
  5
3
330
0
100
AcDbSymbolTable
 70
     1
  0
STYLE
  5
11
330
3
100
AcDbSymbolTableRecord
100
AcDbTextStyleTableRecord
  2
Standard
 70
     0
 40
0.0
 41
1.0
 50
0.0
 71
     0
 42
3.5
  3
txt
  4

  0
ENDTAB
  0
TABLE
  2
VIEW
  5
6
330
0
100
AcDbSymbolTable
 70
     0
  0
ENDTAB
  0
TABLE
  2
UCS
  5
7
330
0
100
AcDbSymbolTable
 70
     0
  0
ENDTAB
  0
TABLE
  2
APPID
  5
9
330
0
100
AcDbSymbolTable
 70
     1
  0
APPID
  5
12
330
9
100
AcDbSymbolTableRecord
100
AcDbRegAppTableRecord
  2
ACAD
 70
     0
  0
ENDTAB
  0
TABLE
  2
DIMSTYLE
  5
A
330
0
100
AcDbSymbolTable
 70
     1
100
AcDbDimStyleTable
  0
DIMSTYLE
105
27
330
A
100
AcDbSymbolTableRecord
100
AcDbDimStyleTableRecord
  2
ISO-25
 70
     0
 41
2.5
 42
0.625
 43
3.75
 44
1.25
 73
     0
 74
     0
 77
     1
 78
     8
140
2.5
141
2.5
143
0.0393700787
147
0.625
171
     3
172
     1
178
     0
271
     2
272
     2
274
     3
278
    44
283
     0
284
     8
340
11
  0
ENDTAB
  0
TABLE
  2
BLOCK_RECORD
  5
1
330
0
100
AcDbSymbolTable
 70
     3
  0
BLOCK_RECORD
  5
1F
330
1
100
AcDbSymbolTableRecord
100
AcDbBlockTableRecord
  2
*Model_Space
340
22
  0
BLOCK_RECORD
  5
238
330
1
100
AcDbSymbolTableRecord
100
AcDbBlockTableRecord
  2
*Paper_Space
340
239
  0
BLOCK_RECORD
  5
1B
330
1
100
AcDbSymbolTableRecord
100
AcDbBlockTableRecord
  2
*Paper_Space0
340
1E
  0
BLOCK_RECORD
  5
23
330
1
100
AcDbSymbolTableRecord
100
AcDbBlockTableRecord
  2
*Paper_Space1
340
26
  0
BLOCK_RECORD
  5
1C2
330
1
100
AcDbSymbolTableRecord
100
AcDbBlockTableRecord
  2
*Paper_Space2
340
1C3
  0
ENDTAB
  0
ENDSEC
  0
SECTION
  2
BLOCKS
  0
BLOCK
  5
20
330
1F
100
AcDbEntity
  8
0
100
AcDbBlockBegin
  2
*Model_Space
 70
     0
 10
0.0
 20
0.0
 30
0.0
  3
*Model_Space
  1

  0
ENDBLK
  5
21
330
1F
100
AcDbEntity
  8
0
100
AcDbBlockEnd
  0
BLOCK
  5
23A
330
238
100
AcDbEntity
 67
     1
  8
0
100
AcDbBlockBegin
  2
*Paper_Space
 70
     0
 10
0.0
 20
0.0
 30
0.0
  3
*Paper_Space
  1

  0
ENDBLK
  5
23B
330
238
100
AcDbEntity
 67
     1
  8
0
100
AcDbBlockEnd
  0
BLOCK
  5
1C
330
1B
100
AcDbEntity
  8
0
100
AcDbBlockBegin
  2
*Paper_Space0
 70
     0
 10
0.0
 20
0.0
 30
0.0
  3
*Paper_Space0
  1

  0
SPLINE
  5
D7
330
1B
100
AcDbEntity
  8
0
  6
Continuous
 62
     7
370
    25
100
AcDbSpline
210
0.0
220
0.0
230
1.0
 70
     8
 71
     3
 72
    29
 73
    25
 74
     0
 42
0.000000001
 43
0.00000001
 40
0.0
 40
0.0
 40
0.0
 40
0.0
 40
0.0239085796036769
 40
0.0693667488685784
 40
0.1148794710835821
 40
0.1604823112267135
 40
0.2062182593382025
 40
0.2521281260316526
 40
0.2982499988572074
 40
0.3446188121450518
 40
0.3912660528406285
 40
0.4382196183848621
 40
0.4855038176114348
 40
0.5331394405231142
 40
0.5811436622715334
 40
0.6295291637138793
 40
0.6783009687122339
 40
0.7274475917899904
 40
0.7769195746250687
 40
0.8265848697833367
 40
0.8760402688427242
 40
0.9247578136487566
 40
0.972319105583219
 40
1.0
 40
1.0
 40
1.0
 40
1.0
 10
-22.5
 20
27.92094909796074
 30
0.0
 10
-22.62745939033502
 20
27.92044337680247
 30
0.0
 10
-22.99726151437892
 20
27.91897611136199
 30
0.0
 10
-23.60840775566177
 20
27.9026603738335
 30
0.0
 10
-24.32826681590085
 20
27.86611795712809
 30
0.0
 10
-25.03870594620644
 20
27.81140333426829
 30
0.0
 10
-25.73609878345288
 20
27.73906372352015
 30
0.0
 10
-26.41693995264556
 20
27.64931161235497
 30
0.0
 10
-27.07776584667446
 20
27.54253046829343
 30
0.0
 10
-27.71517774459688
 20
27.41913671739929
 30
0.0
 10
-28.32585345110542
 20
27.27961232776175
 30
0.0
 10
-28.90656531951556
 20
27.12448821642335
 30
0.0
 10
-29.45419909216678
 20
26.95433607927694
 30
0.0
 10
-29.96577293103599
 20
26.76975105479105
 30
0.0
 10
-30.43845266092585
 20
26.57132778656332
 30
0.0
 10
-30.86955461392186
 20
26.35962806715053
 30
0.0
 10
-31.25652590862266
 20
26.13514424654756
 30
0.0
 10
-31.59686401440463
 20
25.89827615994446
 30
0.0
 10
-31.88800612337442
 20
25.64937250825182
 30
0.0
 10
-32.12679510916794
 20
25.38915606989419
 30
0.0
 10
-32.31019221107844
 20
25.11917672168213
 30
0.0
 10
-32.43411387901171
 20
24.84236195742125
 30
0.0
 10
-32.4924474017679
 20
24.59964107351589
 30
0.0
 10
-32.49796874838301
 20
24.45084628108751
 30
0.0
 10
-32.5
 20
24.39610607298472
 30
0.0
  0
SPLINE
  5
D8
330
1B
100
AcDbEntity
  8
0
  6
Continuous
 62
     7
370
    25
100
AcDbSpline
210
0.0
220
0.0
230
1.0
 70
     8
 71
     3
 72
    11
 73
     7
 74
     0
 42
0.000000001
 43
0.00000001
 40
0.0
 40
0.0
 40
0.0
 40
0.0
 40
0.1592919225191943
 40
0.4764912998540893
 40
0.7931068659757816
 40
1.0
 40
1.0
 40
1.0
 40
1.0
 10
24.77399517626379
 20
27.82850372198998
 30
0.0
 10
24.65588150873769
 20
27.83845520777576
 30
0.0
 10
24.30256707772337
 20
27.86822317292149
 30
0.0
 10
23.70114036572145
 20
27.89833916808837
 30
0.0
 10
23.05957832660263
 20
27.91831656156522
 30
0.0
 10
22.65850578175833
 20
27.9202034074657
 30
0.0
 10
22.50000000000002
 20
27.92094909796074
 30
0.0
  0
SPLINE
  5
D9
330
1B
100
AcDbEntity
  8
0
  6
Continuous
 62
     7
370
    25
100
AcDbSpline
210
0.0
220
0.0
230
1.0
 70
     8
 71
     3
 72
    26
 73
    22
 74
     0
 42
0.000000001
 43
0.00000001
 40
0.0
 40
0.0
 40
0.0
 40
0.0
 40
0.0306831101223692
 40
0.0844396639547823
 40
0.1385388030638178
 40
0.1937086105903749
 40
0.2501010630119131
 40
0.3073422235520931
 40
0.3648901213428642
 40
0.422237182639191
 40
0.4792060558787438
 40
0.5357312415969411
 40
0.5917997831381323
 40
0.6474222481735062
 40
0.7026201308874531
 40
0.7574210228393168
 40
0.811856985640889
 40
0.865964070605448
 40
0.9197821334731362
 40
0.9733546186381034
 40
1.0
 40
1.0
 40
1.0
 40
1.0
 10
32.5
 20
24.39610607298474
 30
0.0
 10
32.4981679943187
 20
24.44806455628445
 30
0.0
 10
32.49312632991521
 20
24.59105387033803
 30
0.0
 10
32.43962802660676
 20
24.82354701570956
 30
0.0
 10
32.32560629684035
 20
25.08949173273019
 30
0.0
 10
32.15663074646915
 20
25.34993902849246
 30
0.0
 10
31.93304296205561
 20
25.60485050434414
 30
0.0
 10
31.65476549221679
 20
25.8528483472224
 30
0.0
 10
31.32393419476957
 20
26.09173456520912
 30
0.0
 10
30.94374197164835
 20
26.31956654110559
 30
0.0
 10
30.51768757022066
 20
26.53496468711118
 30
0.0
 10
30.04884310808749
 20
26.73708829848966
 30
0.0
 10
29.54020533041793
 20
26.92524614036838
 30
0.0
 10
28.99480086870008
 20
27.09880662704983
 30
0.0
 10
28.41573729244908
 20
27.25716250508426
 30
0.0
 10
27.80625225431947
 20
27.39977118633812
 30
0.0
 10
27.16960209617104
 20
27.52602311178671
 30
0.0
 10
26.50944887869965
 20
27.63577351478299
 30
0.0
 10
25.82835990304276
 20
27.72741751517165
 30
0.0
 10
25.24884382616436
 20
27.79214274923691
 30
0.0
 10
24.89239437913056
 20
27.81943744331293
 30
0.0
 10
24.77399517626379
 20
27.82850372198998
 30
0.0
  0
SPLINE
  5
DB
330
1B
100
AcDbEntity
  8
0
  6
Continuous
 62
     7
370
    25
100
AcDbSpline
210
0.0
220
0.0
230
1.0
 70
     8
 71
     3
 72
    26
 73
    22
 74
     0
 42
0.000000001
 43
0.00000001
 40
0.0
 40
0.0
 40
0.0
 40
0.0
 40
0.0266637282010149
 40
0.0774825502206737
 40
0.1284400859041144
 40
0.179634793102524
 40
0.2311731702558693
 40
0.2831506368781486
 40
0.3356484813628257
 40
0.3887312699841122
 40
0.4424449376075755
 40
0.4968159379149076
 40
0.5518520995429667
 40
0.6075462750700985
 40
0.663884509809372
 40
0.7208611312850662
 40
0.7785030187818718
 40
0.836901597691532
 40
0.8962368445547109
 40
0.9567410946915837
 40
1.0
 40
1.0
 40
1.0
 40
1.0
 10
21.30000000000001
 20
19.5938436145737
 30
0.0
 10
21.40436924848564
 20
19.59317428170758
 30
0.0
 10
21.70765750121296
 20
19.59122925672752
 30
0.0
 10
22.20883817992341
 20
19.56956147563703
 30
0.0
 10
22.79757981704905
 20
19.5210529101313
 30
0.0
 10
23.37587701862261
 20
19.44853952564623
 30
0.0
 10
23.93976040575948
 20
19.35288956237725
 30
0.0
 10
24.48535477771368
 20
19.23457291567674
 30
0.0
 10
25.00876376124195
 20
19.09435823050735
 30
0.0
 10
25.5060923135563
 20
18.93315373171735
 30
0.0
 10
25.97346727321412
 20
18.75208274688501
 30
0.0
 10
26.40708172485141
 20
18.55249707480314
 30
0.0
 10
26.80325976784728
 20
18.33600387462227
 30
0.0
 10
27.15855020496706
 20
18.10447646996423
 30
0.0
 10
27.46983791183236
 20
17.86004037540653
 30
0.0
 10
27.73451569755172
 20
17.60500688107376
 30
0.0
 10
27.9505079897083
 20
17.341716262336
 30
0.0
 10
28.11676787239054
 20
17.07224837226571
 30
0.0
 10
28.23146504653549
 20
16.79803794980273
 30
0.0
 10
28.29105493475102
 20
16.54796122402405
 30
0.0
 10
28.29736805668075
 20
16.38927507190016
 30
0.0
 10
28.3
 20
16.32311874503225
 30
0.0
  0
SPLINE
  5
DC
330
1B
100
AcDbEntity
  8
0
  6
Continuous
 62
     7
370
    25
100
AcDbSpline
210
0.0
220
0.0
230
1.0
 70
     8
 71
     3
 72
    26
 73
    22
 74
     0
 42
0.000000001
 43
0.00000001
 40
0.0
 40
0.0
 40
0.0
 40
0.0
 40
0.0309409944808078
 40
0.0935284487803806
 40
0.1553359860806165
 40
0.2157280445439717
 40
0.2747498548031279
 40
0.3326614137091812
 40
0.3896766275499042
 40
0.4459160183992318
 40
0.5014338908621406
 40
0.556252657250633
 40
0.6103875343439763
 40
0.6638611412517746
 40
0.7167108497843155
 40
0.7689915269384952
 40
0.8207754897716047
 40
0.8721508053080821
 40
0.9232186136435364
 40
0.9740898794474044
 40
1.0
 40
1.0
 40
1.0
 40
1.0
 10
-28.29999999999999
 20
16.32311874503225
 30
0.0
 10
-28.29861874786556
 20
16.3704334303425
 30
0.0
 10
-28.29444349843755
 20
16.51345627740532
 30
0.0
 10
-28.24653165622377
 20
16.751465670116
 30
0.0
 10
-28.13585188363624
 20
17.0356679518116
 30
0.0
 10
-27.97040363840499
 20
17.31428692696641
 30
0.0
 10
-27.75372846274536
 20
17.58448663802662
 30
0.0
 10
-27.48797574353674
 20
17.84444047121075
 30
0.0
 10
-27.17545401356495
 20
18.09250244948903
 30
0.0
 10
-26.81865716881697
 20
18.32690729889867
 30
0.0
 10
-26.42054152244457
 20
18.54582664842529
 30
0.0
 10
-25.98448958912022
 20
18.74750176345874
 30
0.0
 10
-25.5142236210097
 20
18.93034050318484
 30
0.0
 10
-25.01369430372351
 20
19.09296771195753
 30
0.0
 10
-24.48698386818657
 20
19.23423583996151
 30
0.0
 10
-23.93822836088544
 20
19.35323146873969
 30
0.0
 10
-23.37156724577085
 20
19.44920881265108
 30
0.0
 10
-22.79109505402764
 20
19.52174805768851
 30
0.0
 10
-22.20089790956376
 20
19.5700689188498
 30
0.0
 10
-21.701957988886
 20
19.59133396182797
 30
0.0
 10
-21.40141812368508
 20
19.59321040344316
 30
0.0
 10
-21.29999999999993
 20
19.5938436145737
 30
0.0
  0
LWPOLYLINE
  5
DF
330
1B
100
AcDbEntity
  8
0
  6
Continuous
 62
     7
370
    25
100
AcDbPolyline
 90
       21
 70
   128
 43
0.0
 10
-32.5
 20
16.90157289
 10
-32.4691733373
 20
17.2722169679
 10
-32.376883406
 20
17.6405759018
 10
-32.223699204
 20
18.0043786364
 10
-32.010565163
 20
18.3613822068
 10
-31.7387953251
 20
18.7093855674
 10
-31.4100652419
 20
19.0462431617
 10
-31.0264016435
 20
19.3698781505
 10
-30.5901699437
 20
19.6782952166
 10
-30.104059656
 20
19.9695928663
 10
-29.5710678119
 20
20.2419751526
 10
-28.9944804833
 20
20.4937627481
 10
-28.3778525229
 20
20.7234032986
 10
-27.7249856472
 20
20.9294809937
 10
-27.0399049974
 20
21.110725296
 10
-26.3268343237
 20
21.2660187741
 10
-25.5901699437
 20
21.3944039919
 10
-24.8344536386
 20
21.4950894119
 10
-24.0643446504
 20
21.5674542751
 10
-23.2845909573
 20
21.611052428
 10
-22.5
 20
21.6256150735
  0
LWPOLYLINE
  5
E1
330
1B
100
AcDbEntity
  8
0
  6
Continuous
 62
     7
370
    25
100
AcDbPolyline
 90
       21
 70
   128
 43
0.0
 10
-22.5
 20
21.4454544494
 10
-23.2688991381
 20
21.4308918039
 10
-24.0330577574
 20
21.387293651
 10
-24.7877645658
 20
21.3149287878
 10
-25.5283665449
 20
21.2142433678
 10
-26.2502976372
 20
21.0858581499
 10
-26.9491068974
 20
20.9305646719
 10
-27.6204859342
 20
20.7493203696
 10
-28.2602954725
 20
20.5432426745
 10
-28.8645908736
 20
20.313602124
 10
-29.4296464556
 20
20.0618145284
 10
-29.9519784629
 20
19.7894322422
 10
-30.4283665449
 20
19.4981345925
 10
-30.8558736107
 20
19.1897175264
 10
-31.231863937
 20
18.8660825375
 10
-31.5540194186
 20
18.5292249433
 10
-31.8203538597
 20
18.1812215827
 10
-32.0292252199
 20
17.8242180123
 10
-32.1793457378
 20
17.4604152777
 10
-32.2697898706
 20
17.0920563437
 10
-32.3
 20
16.7214122658
  0
LWPOLYLINE
  5
E4
330
1B
100
AcDbEntity
  8
0
  6
Continuous
 62
     7
370
    25
100
AcDbPolyline
 90
       21
 70
   128
 43
0.0
 10
-22.5
 20
27.720949098
 10
-23.2845909573
 20
27.7106997165
 10
-24.0643446504
 20
27.6800147631
 10
-24.8344536386
 20
27.6290834205
 10
-25.5901699437
 20
27.5582196975
 10
-26.3268343237
 20
27.4678604926
 10
-27.0399049974
 20
27.3585629001
 10
-27.7249856472
 20
27.2310007763
 10
-28.3778525229
 20
27.0859605838
 10
-28.9944804833
 20
26.9243365439
 10
-29.5710678119
 20
26.7471251223
 10
-30.104059656
 20
26.5554188866
 10
-30.5901699437
 20
26.3503997693
 10
-31.0264016435
 20
26.1333317814
 10
-31.4100652419
 20
25.9055532194
 10
-31.7387953251
 20
25.6684684139
 10
-32.010565163
 20
25.4235390713
 10
-32.223699204
 20
25.1722752627
 10
-32.376883406
 20
24.9162261129
 10
-32.4691733373
 20
24.6569702502
 10
-32.5
 20
24.396106073
  0
LWPOLYLINE
  5
E9
330
1B
100
AcDbEntity
  8
0
  6
Continuous
 62
     7
370
    25
100
AcDbPolyline
 90
       21
 70
   128
 43
0.0
 10
32.5
 20
24.396106073
 10
32.4691733373
 20
24.6569702502
 10
32.376883406
 20
24.9162261129
 10
32.223699204
 20
25.1722752627
 10
32.010565163
 20
25.4235390713
 10
31.7387953251
 20
25.6684684139
 10
31.4100652419
 20
25.9055532194
 10
31.0264016435
 20
26.1333317814
 10
30.5901699437
 20
26.3503997693
 10
30.104059656
 20
26.5554188866
 10
29.5710678119
 20
26.7471251223
 10
28.9944804833
 20
26.9243365439
 10
28.3778525229
 20
27.0859605838
 10
27.7249856472
 20
27.2310007763
 10
27.0399049974
 20
27.3585629001
 10
26.3268343237
 20
27.4678604926
 10
25.5901699437
 20
27.5582196975
 10
24.8344536386
 20
27.6290834205
 10
24.0643446504
 20
27.6800147631
 10
23.2845909573
 20
27.7106997165
 10
22.5
 20
27.720949098
  0
LWPOLYLINE
  5
EC
330
1B
100
AcDbEntity
  8
0
  6
Continuous
 62
     7
370
    25
100
AcDbPolyline
 90
       21
 70
   128
 43
0.0
 10
22.5
 20
21.6256150735
 10
23.2845909573
 20
21.611052428
 10
24.0643446504
 20
21.5674542751
 10
24.8344536386
 20
21.4950894119
 10
25.5901699437
 20
21.3944039919
 10
26.3268343237
 20
21.2660187741
 10
27.0399049974
 20
21.110725296
 10
27.7249856472
 20
20.9294809937
 10
28.3778525229
 20
20.7234032986
 10
28.9944804833
 20
20.4937627481
 10
29.5710678119
 20
20.2419751526
 10
30.104059656
 20
19.9695928663
 10
30.5901699437
 20
19.6782952166
 10
31.0264016435
 20
19.3698781505
 10
31.4100652419
 20
19.0462431617
 10
31.7387953251
 20
18.7093855674
 10
32.010565163
 20
18.3613822068
 10
32.223699204
 20
18.0043786364
 10
32.376883406
 20
17.6405759018
 10
32.4691733373
 20
17.2722169679
 10
32.5
 20
16.90157289
  0
LWPOLYLINE
  5
EE
330
1B
100
AcDbEntity
  8
0
  6
Continuous
 62
     7
370
    25
100
AcDbPolyline
 90
       21
 70
   128
 43
0.0
 10
32.3
 20
16.7214122658
 10
32.2697898706
 20
17.0920563437
 10
32.1793457378
 20
17.4604152777
 10
32.0292252199
 20
17.8242180123
 10
31.8203538597
 20
18.1812215827
 10
31.5540194186
 20
18.5292249433
 10
31.231863937
 20
18.8660825375
 10
30.8558736107
 20
19.1897175264
 10
30.4283665449
 20
19.4981345925
 10
29.9519784629
 20
19.7894322422
 10
29.4296464556
 20
20.0618145284
 10
28.8645908736
 20
20.313602124
 10
28.2602954725
 20
20.5432426745
 10
27.6204859342
 20
20.7493203696
 10
26.9491068974
 20
20.9305646719
 10
26.2502976372
 20
21.0858581499
 10
25.5283665449
 20
21.2142433678
 10
24.7877645658
 20
21.3149287878
 10
24.0330577574
 20
21.387293651
 10
23.2688991381
 20
21.4308918039
 10
22.5
 20
21.4454544494
  0
LWPOLYLINE
  5
F1
330
1B
100
AcDbEntity
  8
0
  6
Continuous
 62
     7
370
    25
100
AcDbPolyline
 90
       18
 70
   128
 43
0.0
 10
-28.5
 20
16.1429581209
 10
-28.4692860693
 20
16.4631962108
 10
-28.3774063177
 20
16.7807021422
 10
-28.2251446308
 20
17.0927670664
 10
-28.0138000517
 20
17.3967285557
 10
-27.7451756978
 20
17.6899933176
 10
-27.4215633773
 20
17.9700593207
 10
-27.0457240364
 20
18.2345371407
 10
-26.620864204
 20
18.4811703458
 10
-26.1506086343
 20
18.7078547487
 10
-25.6389693819
 20
18.912656358
 10
-25.0903115727
 20
19.0938278784
 10
-24.5093161616
 20
19.2498236185
 10
-23.9009399965
 20
19.3793126777
 10
-23.2703735285
 20
19.4811903008
 10
-22.6229965283
 20
19.5545873041
 10
-21.9643321881
 20
19.59887749
 10
-21.3
 20
19.6136829905
  0
LWPOLYLINE
  5
F8
330
1B
100
AcDbEntity
  8
0
  6
Continuous
 62
     7
370
    25
100
AcDbPolyline
 90
       18
 70
   128
 43
0.0
 10
21.3
 20
19.6136829905
 10
21.9643321881
 20
19.59887749
 10
22.6229965283
 20
19.5545873041
 10
23.2703735285
 20
19.4811903008
 10
23.9009399965
 20
19.3793126777
 10
24.5093161616
 20
19.2498236185
 10
25.0903115727
 20
19.0938278784
 10
25.6389693819
 20
18.912656358
 10
26.1506086343
 20
18.7078547487
 10
26.620864204
 20
18.4811703458
 10
27.0457240364
 20
18.2345371407
 10
27.4215633773
 20
17.9700593207
 10
27.7451756978
 20
17.6899933176
 10
28.0138000517
 20
17.3967285557
 10
28.2251446308
 20
17.0927670664
 10
28.3774063177
 20
16.7807021422
 10
28.4692860693
 20
16.4631962108
 10
28.5
 20
16.1429581209
  0
SPLINE
  5
112
330
1B
100
AcDbEntity
  8
0
  6
Continuous
 62
     7
370
    25
100
AcDbSpline
210
0.0
220
0.0
230
1.0
 70
     8
 71
     3
 72
    16
 73
    12
 74
     0
 42
0.000000001
 43
0.00000001
 40
0.0
 40
0.0
 40
0.0
 40
0.0
 40
0.0823477528388376
 40
0.2041781601252164
 40
0.3295385392866044
 40
0.4519969849474555
 40
0.5779545022409149
 40
0.7014598418680842
 40
0.8285319023345243
 40
0.9136942423179408
 40
1.0
 40
1.0
 40
1.0
 40
1.0
 10
-28.29999999999999
 20
16.01493285852872
 30
0.0
 10
-28.24161003476364
 20
16.0080760655505
 30
0.0
 10
-28.09683430912765
 20
15.99107490490689
 30
0.0
 10
-27.64302771279733
 20
15.99819978573599
 30
0.0
 10
-26.9871411264388
 20
16.02490258636345
 30
0.0
 10
-26.15765667851513
 20
16.0684722947239
 30
0.0
 10
-25.19919867928508
 20
16.11755066854222
 30
0.0
 10
-24.11882790511734
 20
16.16414221462907
 30
0.0
 10
-23.08355268819342
 20
16.19523395222558
 30
0.0
 10
-22.13251620718438
 20
16.21200933903069
 30
0.0
 10
-21.57873634409809
 20
16.21385998611403
 30
0.0
 10
-21.3
 20
16.21479148008232
 30
0.0
  0
SPLINE
  5
113
330
1B
100
AcDbEntity
  8
0
  6
Continuous
 62
     7
370
    25
100
AcDbSpline
210
0.0
220
0.0
230
1.0
 70
     8
 71
     3
 72
    14
 73
    10
 74
     0
 42
0.000000001
 43
0.00000001
 40
0.0
 40
0.0
 40
0.0
 40
0.0
 40
0.1657496372550344
 40
0.3315041655802144
 40
0.4963453491109039
 40
0.6617610589254876
 40
0.8266362952955881
 40
0.9890007361377093
 40
1.0
 40
1.0
 40
1.0
 40
1.0
 10
-20.5
 20
17.92089489714578
 30
0.0
 10
-20.95367220709278
 20
17.91621308122369
 30
0.0
 10
-21.86103000859323
 20
17.90684931122482
 30
0.0
 10
-23.20056468691702
 20
17.83470703665829
 30
0.0
 10
-24.49955267440118
 20
17.72258248501075
 30
0.0
 10
-25.74432414350653
 20
17.57478523254852
 30
0.0
 10
-26.90258815930851
 20
17.39948728862974
 30
0.0
 10
-27.66665999065408
 20
17.26718976332691
 30
0.0
 10
-28.01214061414077
 20
17.19555335455917
 30
0.0
 10
-28.03406003806816
 20
17.19100829846726
 30
0.0
  0
SPLINE
  5
115
330
1B
100
AcDbEntity
  8
0
  6
Continuous
 62
     7
370
    25
100
AcDbSpline
210
0.0
220
0.0
230
1.0
 70
     8
 71
     3
 72
    14
 73
    10
 74
     0
 42
0.000000001
 43
0.00000001
 40
0.0
 40
0.0
 40
0.0
 40
0.0
 40
0.0566675668471443
 40
0.2135701931912979
 40
0.3709321073445532
 40
0.5278094838559155
 40
0.6850462076129294
 40
0.8427818000919188
 40
1.0
 40
1.0
 40
1.0
 40
1.0
 10
28.03609120138114
 20
17.18848750318977
 30
0.0
 10
27.92080481823537
 20
17.2118382327038
 30
0.0
 10
27.48631051239753
 20
17.29984306670207
 30
0.0
 10
26.6382892164822
 20
17.44194574551803
 30
0.0
 10
25.51123388516909
 20
17.60493771809987
 30
0.0
 10
24.31585620440242
 20
17.74127116534916
 30
0.0
 10
23.07191639444965
 20
17.84190673505142
 30
0.0
 10
21.79432636584434
 20
17.90787734205346
 30
0.0
 10
20.93096936000476
 20
17.91656046686991
 30
0.0
 10
20.5
 20
17.92089489714577
 30
0.0
  0
SPLINE
  5
116
330
1B
100
AcDbEntity
  8
0
  6
Continuous
 62
     7
370
    25
100
AcDbSpline
210
0.0
220
0.0
230
1.0
 70
     8
 71
     3
 72
    15
 73
    11
 74
     0
 42
0.000000001
 43
0.00000001
 40
0.0
 40
0.0
 40
0.0
 40
0.0
 40
0.1241873020744338
 40
0.2519574734167638
 40
0.3760227611788742
 40
0.5036445237140279
 40
0.6279074140890318
 40
0.7557814168642725
 40
0.8796864995227394
 40
1.0
 40
1.0
 40
1.0
 40
1.0
 10
21.3
 20
16.21479148008232
 30
0.0
 10
21.69811030743564
 20
16.21287863288479
 30
0.0
 10
22.50581661498178
 20
16.20899775183761
 30
0.0
 10
23.67779590220931
 20
16.1791308976704
 30
0.0
 10
24.79275153316171
 20
16.13650430569938
 30
0.0
 10
25.79991067039595
 20
16.0873294177726
 30
0.0
 10
26.69090864307296
 20
16.04006130091646
 30
0.0
 10
27.41782890575733
 20
16.0058166445356
 30
0.0
 10
27.98252970445554
 20
15.9900349198253
 30
0.0
 10
28.19521920217301
 20
16.00361155932896
 30
0.0
 10
28.3
 20
16.01030004716814
 30
0.0
  0
SPLINE
  5
12F
330
1B
100
AcDbEntity
  8
0
  6
Continuous
 62
     7
370
    25
100
AcDbSpline
210
0.0
220
0.0
230
1.0
 70
     8
 71
     3
 72
    27
 73
    23
 74
     0
 42
0.000000001
 43
0.00000001
 40
0.0
 40
0.0
 40
0.0
 40
0.0
 40
0.1250000000000001
 40
0.1250000000000001
 40
0.1875
 40
0.1875
 40
0.2499999999999999
 40
0.3124999999999999
 40
0.3124999999999999
 40
0.3749999999999999
 40
0.3749999999999999
 40
0.5000000000000002
 40
0.5000000000000002
 40
0.6250000000000007
 40
0.6250000000000007
 40
0.750000000000001
 40
0.750000000000001
 40
0.8125000000000008
 40
0.8125000000000008
 40
0.8750000000000007
 40
0.8750000000000007
 40
1.0
 40
1.0
 40
1.0
 40
1.0
 10
28.3
 20
15.88103724630531
 30
0.0
 10
28.3
 20
15.8517937988478
 30
0.0
 10
28.25479225885239
 20
15.83041375741137
 30
0.0
 10
28.11939653582171
 20
15.80940404580034
 30
0.0
 10
28.06289488974973
 20
15.80427998056369
 30
0.0
 10
27.9294600741939
 20
15.79762065481246
 30
0.0
 10
27.77521729850863
 20
15.79447889260187
 30
0.0
 10
27.57993101314279
 20
15.79759451943184
 30
0.0
 10
27.36381489650841
 20
15.80346583872798
 30
0.0
 10
27.2445918012939
 20
15.80781420276738
 30
0.0
 10
26.86054911375456
 20
15.82415204279362
 30
0.0
 10
26.5707636367424
 20
15.83931174397365
 30
0.0
 10
25.92530592472636
 20
15.87377782070438
 30
0.0
 10
25.56532319639906
 20
15.89330503683615
 30
0.0
 10
24.80483529349757
 20
15.93089137526427
 30
0.0
 10
24.40305249087519
 20
15.94903991493522
 30
0.0
 10
23.76768269110523
 20
15.97257128822366
 30
0.0
 10
23.54923769927639
 20
15.97983163860692
 30
0.0
 10
23.10962712891864
 20
15.99247304435392
 30
0.0
 10
22.88790400352464
 20
15.99788444625257
 30
0.0
 10
22.21710159164163
 20
16.0110670250607
 30
0.0
 10
21.76244405337451
 20
16.01576966000036
 30
0.0
 10
21.3
 20
16.01576966000036
 30
0.0
  0
SPLINE
  5
133
330
1B
100
AcDbEntity
  8
0
  6
Continuous
 62
     7
370
    25
100
AcDbSpline
210
0.0
220
0.0
230
1.0
 70
     8
 71
     3
 72
    27
 73
    23
 74
     0
 42
0.000000001
 43
0.00000001
 40
0.0
 40
0.0
 40
0.0
 40
0.0
 40
0.1249999999999997
 40
0.1249999999999997
 40
0.1874999999999995
 40
0.1874999999999995
 40
0.2499999999999993
 40
0.3124999999999992
 40
0.3124999999999992
 40
0.374999999999999
 40
0.374999999999999
 40
0.4999999999999992
 40
0.4999999999999992
 40
0.6249999999999994
 40
0.6249999999999994
 40
0.7499999999999997
 40
0.7499999999999997
 40
0.8124999999999997
 40
0.8124999999999997
 40
0.8749999999999998
 40
0.8749999999999998
 40
1.0
 40
1.0
 40
1.0
 40
1.0
 10
-21.3
 20
16.01576966000037
 30
0.0
 10
-21.76241205037603
 20
16.01576966000037
 30
0.0
 10
-22.21951163718969
 20
16.01106404077963
 30
0.0
 10
-22.89728404980363
 20
15.99767739716265
 30
0.0
 10
-23.12188687356662
 20
15.99215321850456
 30
0.0
 10
-23.56008652809211
 20
15.97948518389952
 30
0.0
 10
-23.98946203994891
 20
15.96516051300564
 30
0.0
 10
-24.40150381185378
 20
15.9482645098384
 30
0.0
 10
-24.80478520985082
 20
15.93048780137578
 30
0.0
 10
-25.00298769109161
 20
15.92111128454967
 30
0.0
 10
-25.57686610636405
 20
15.89270677075798
 30
0.0
 10
-25.92893817083779
 20
15.87358163655605
 30
0.0
 10
-26.57384984139207
 20
15.83914920031368
 30
0.0
 10
-26.86910737172963
 20
15.82374070000181
 30
0.0
 10
-27.37697804210674
 20
15.80223073882138
 30
0.0
 10
-27.59181838802271
 20
15.79597404699632
 30
0.0
 10
-27.85504332796409
 20
15.79607890876671
 30
0.0
 10
-27.9331828234133
 20
15.79772634200831
 30
0.0
 10
-28.06634344835097
 20
15.80453661073198
 30
0.0
 10
-28.12168364971036
 20
15.80967952601498
 30
0.0
 10
-28.25480298693807
 20
15.83057841939354
 30
0.0
 10
-28.3
 20
15.85179603879145
 30
0.0
 10
-28.3
 20
15.88103724630531
 30
0.0
  0
LINE
  5
144
330
1B
100
AcDbEntity
  8
0
  6
Continuous
 62
     7
370
    25
100
AcDbLine
 10
22.5
 20
27.920949098
 30
0.0
 11
-22.5
 21
27.920949098
 31
0.0
  0
LINE
  5
145
330
1B
100
AcDbEntity
  8
0
  6
Continuous
 62
     7
370
    25
100
AcDbLine
 10
-21.3
 20
19.5938436146
 30
0.0
 11
21.3
 21
19.5938436146
 31
0.0
  0
LINE
  5
146
330
1B
100
AcDbEntity
  8
0
  6
Continuous
 62
     7
370
    25
100
AcDbLine
 10
20.5
 20
17.9295022911
 30
0.0
 11
-20.5
 21
17.9295022911
 31
0.0
  0
LINE
  5
147
330
1B
100
AcDbEntity
  8
0
  6
Continuous
 62
     7
370
    25
100
AcDbLine
 10
-22.5
 20
27.9209490869
 30
0.0
 11
-22.5
 21
21.4454544494
 31
0.0
  0
LINE
  5
148
330
1B
100
AcDbEntity
  8
0
  6
Continuous
 62
     7
370
    25
100
AcDbLine
 10
-32.5
 20
0.2
 30
0.0
 11
-32.5
 21
24.396106073
 31
0.0
  0
LINE
  5
149
330
1B
100
AcDbEntity
  8
0
  6
Continuous
 62
     7
370
    25
100
AcDbLine
 10
-22.5
 20
21.6256150735
 30
0.0
 11
22.5
 21
21.6256150735
 31
0.0
  0
LINE
  5
14A
330
1B
100
AcDbEntity
  8
0
  6
Continuous
 62
     7
370
    25
100
AcDbLine
 10
22.5
 20
21.4454544494
 30
0.0
 11
22.5
 21
27.9209490869
 31
0.0
  0
LINE
  5
14B
330
1B
100
AcDbEntity
  8
0
  6
Continuous
 62
     7
370
    25
100
AcDbLine
 10
22.5
 20
21.4454544494
 30
0.0
 11
-22.5
 21
21.4454544494
 31
0.0
  0
LINE
  5
14C
330
1B
100
AcDbEntity
  8
0
  6
Continuous
 62
     7
370
    25
100
AcDbLine
 10
22.5
 20
27.720949098
 30
0.0
 11
-22.5
 21
27.720949098
 31
0.0
  0
LINE
  5
14D
330
1B
100
AcDbEntity
  8
0
  6
Continuous
 62
     7
370
    25
100
AcDbLine
 10
32.5
 20
24.396106073
 30
0.0
 11
32.5
 21
0.2
 31
0.0
  0
LINE
  5
14E
330
1B
100
AcDbEntity
  8
0
  6
Continuous
 62
     7
370
    25
100
AcDbLine
 10
-21.3
 20
19.6136829905
 30
0.0
 11
21.3
 21
19.6136829905
 31
0.0
  0
LINE
  5
14F
330
1B
100
AcDbEntity
  8
0
  6
Continuous
 62
     7
370
    25
100
AcDbLine
 10
-28.5
 20
0.0
 30
0.0
 11
-28.5
 21
16.1429581209
 31
0.0
  0
LINE
  5
150
330
1B
100
AcDbEntity
  8
0
  6
Continuous
 62
     7
370
    25
100
AcDbLine
 10
-32.3
 20
8.3672429835
 30
0.0
 11
-28.5
 21
8.3672429835
 31
0.0
  0
LINE
  5
151
330
1B
100
AcDbEntity
  8
0
  6
Continuous
 62
     7
370
    25
100
AcDbLine
 10
-32.3
 20
16.7214122658
 30
0.0
 11
-32.3
 21
0.0
 31
0.0
  0
LINE
  5
152
330
1B
100
AcDbEntity
  8
0
  6
Continuous
 62
     7
370
    25
100
AcDbLine
 10
32.3
 20
0.0
 30
0.0
 11
32.3
 21
16.7214122658
 31
0.0
  0
LINE
  5
153
330
1B
100
AcDbEntity
  8
0
  6
Continuous
 62
     7
370
    25
100
AcDbLine
 10
28.5
 20
8.3672429835
 30
0.0
 11
32.3
 21
8.3672429835
 31
0.0
  0
LINE
  5
154
330
1B
100
AcDbEntity
  8
0
  6
Continuous
 62
     7
370
    25
100
AcDbLine
 10
28.5
 20
16.1429581209
 30
0.0
 11
28.5
 21
0.0
 31
0.0
  0
LINE
  5
155
330
1B
100
AcDbEntity
  8
0
  6
Continuous
 62
     7
370
    25
100
AcDbLine
 10
28.3
 20
0.2
 30
0.0
 11
28.3
 21
16.323118745
 31
0.0
  0
LINE
  5
156
330
1B
100
AcDbEntity
  8
0
  6
Continuous
 62
     7
370
    25
100
AcDbLine
 10
-28.3
 20
16.323118745
 30
0.0
 11
-28.3
 21
0.2
 31
0.0
  0
LINE
  5
157
330
1B
100
AcDbEntity
  8
0
  6
Continuous
 62
     7
370
    25
100
AcDbLine
 10
-32.3
 20
4.615909085
 30
0.0
 11
-28.5
 21
4.615909085
 31
0.0
  0
LINE
  5
158
330
1B
100
AcDbEntity
  8
0
  6
Continuous
 62
     7
370
    25
100
AcDbLine
 10
28.5
 20
4.615909085
 30
0.0
 11
32.3
 21
4.615909085
 31
0.0
  0
LINE
  5
159
330
1B
100
AcDbEntity
  8
0
  6
Continuous
 62
     7
370
    25
100
AcDbLine
 10
-21.3
 20
16.2147914801
 30
0.0
 11
21.3
 21
16.2147914801
 31
0.0
  0
LINE
  5
15A
330
1B
100
AcDbEntity
  8
0
  6
Continuous
 62
     7
370
    25
100
AcDbLine
 10
20.5
 20
17.9208948971
 30
0.0
 11
-20.5
 21
17.9208948971
 31
0.0
  0
LINE
  5
15B
330
1B
100
AcDbEntity
  8
0
  6
Continuous
 62
     7
370
    25
100
AcDbLine
 10
28.5
 20
0.1931670085
 30
0.0
 11
32.3
 21
0.1931670085
 31
0.0
  0
LINE
  5
15C
330
1B
100
AcDbEntity
  8
0
  6
Continuous
 62
     7
370
    25
100
AcDbLine
 10
-32.3
 20
0.1931670085
 30
0.0
 11
-28.5
 21
0.1931670085
 31
0.0
  0
LINE
  5
15D
330
1B
100
AcDbEntity
  8
0
  6
Continuous
 62
     7
370
    25
100
AcDbLine
 10
32.3
 20
0.0
 30
0.0
 11
-32.3
 21
0.0
 31
0.0
  0
LINE
  5
15E
330
1B
100
AcDbEntity
  8
0
  6
Continuous
 62
     7
370
    25
100
AcDbLine
 10
21.3
 20
0.0
 30
0.0
 11
21.3
 21
16.2147914801
 31
0.0
  0
LINE
  5
15F
330
1B
100
AcDbEntity
  8
0
  6
Continuous
 62
     7
370
    25
100
AcDbLine
 10
-21.3
 20
16.2147914801
 30
0.0
 11
-21.3
 21
0.0
 31
0.0
  0
LINE
  5
160
330
1B
100
AcDbEntity
  8
0
  6
Continuous
 62
     7
370
    25
100
AcDbLine
 10
-28.3
 20
0.2
 30
0.0
 11
28.3
 21
0.2
 31
0.0
  0
LINE
  5
161
330
1B
100
AcDbEntity
  8
0
  6
Continuous
 62
     7
370
    25
100
AcDbLine
 10
-20.5
 20
17.9208948971
 30
0.0
 11
-20.5
 21
17.9295022911
 31
0.0
  0
LINE
  5
162
330
1B
100
AcDbEntity
  8
0
  6
Continuous
 62
     7
370
    25
100
AcDbLine
 10
20.5
 20
17.9208948971
 30
0.0
 11
20.5
 21
17.9295022911
 31
0.0
  0
LINE
  5
163
330
1B
100
AcDbEntity
  8
0
  6
Continuous
 62
     7
370
    25
100
AcDbLine
 10
21.3
 20
16.01576966
 30
0.0
 11
-21.3
 21
16.01576966
 31
0.0
  0
LINE
  5
164
330
1B
100
AcDbEntity
  8
0
  6
Continuous
 62
     8
370
    25
100
AcDbLine
 10
21.3
 20
19.6136829905
 30
0.0
 11
21.3
 21
19.5938438031
 31
0.0
  0
LINE
  5
165
330
1B
100
AcDbEntity
  8
0
  6
Continuous
 62
     8
370
    25
100
AcDbLine
 10
-21.3
 20
19.6136829905
 30
0.0
 11
-21.3
 21
19.5938437894
 31
0.0
  0
ARC
  5
166
330
1B
100
AcDbEntity
  8
0
  6
Continuous
 62
     7
370
    25
100
AcDbCircle
 10
-32.3094276869
 20
16.9120387583
 30
0.0
 40
0.1908594795152583
100
AcDbArc
 50
183.143417418
 51
272.8313321255
  0
ARC
  5
167
330
1B
100
AcDbEntity
  8
0
  6
Continuous
 62
     7
370
    25
100
AcDbCircle
 10
32.3094276869
 20
16.9120387583
 30
0.0
 40
0.1908594795152583
100
AcDbArc
 50
267.1686678745
 51
356.856582582
  0
ARC
  5
168
330
1B
100
AcDbEntity
  8
0
  6
Continuous
 62
     7
370
    25
100
AcDbCircle
 10
28.4905723131
 20
16.3335846134
 30
0.0
 40
0.1908594795152667
100
AcDbArc
 50
183.143417418
 51
272.8313321255
  0
ARC
  5
169
330
1B
100
AcDbEntity
  8
0
  6
Continuous
 62
     7
370
    25
100
AcDbCircle
 10
-28.4905723131
 20
16.3335846134
 30
0.0
 40
0.1908594795152587
100
AcDbArc
 50
267.1686678745
 51
356.856582582
  0
ARC
  5
16A
330
1B
100
AcDbEntity
  8
0
  6
Continuous
 62
     7
370
    25
100
AcDbCircle
 10
-32.3094276869
 20
8.557869476
 30
0.0
 40
0.1908594795152715
100
AcDbArc
 50
183.143417418
 51
272.8313321255
  0
ARC
  5
16B
330
1B
100
AcDbEntity
  8
0
  6
Continuous
 62
     7
370
    25
100
AcDbCircle
 10
32.3094276869
 20
8.557869476
 30
0.0
 40
0.1908594795152719
100
AcDbArc
 50
267.1686678745
 51
356.856582582
  0
ARC
  5
16C
330
1B
100
AcDbEntity
  8
0
  6
Continuous
 62
     7
370
    25
100
AcDbCircle
 10
28.4905723131
 20
8.557869476
 30
0.0
 40
0.1908594795152598
100
AcDbArc
 50
183.143417418
 51
272.8313321255
  0
ARC
  5
16D
330
1B
100
AcDbEntity
  8
0
  6
Continuous
 62
     7
370
    25
100
AcDbCircle
 10
-28.4905723131
 20
8.557869476
 30
0.0
 40
0.1908594795152647
100
AcDbArc
 50
267.1686678745
 51
356.856582582
  0
ARC
  5
16E
330
1B
100
AcDbEntity
  8
0
  6
Continuous
 62
     7
370
    25
100
AcDbCircle
 10
-32.316674217
 20
4.7996138807
 30
0.0
 40
0.1844599725735036
100
AcDbArc
 50
186.3569992015
 51
275.1863183682
  0
ARC
  5
16F
330
1B
100
AcDbEntity
  8
0
  6
Continuous
 62
     7
370
    25
100
AcDbCircle
 10
-28.483325783
 20
4.7996138807
 30
0.0
 40
0.1844599725735018
100
AcDbArc
 50
264.8136816318
 51
353.6430007985
  0
ARC
  5
170
330
1B
100
AcDbEntity
  8
0
  6
Continuous
 62
     7
370
    25
100
AcDbCircle
 10
28.483325783
 20
4.7996138807
 30
0.0
 40
0.1844599725735136
100
AcDbArc
 50
186.3569992015
 51
275.1863183682
  0
ARC
  5
171
330
1B
100
AcDbEntity
  8
0
  6
Continuous
 62
     7
370
    25
100
AcDbCircle
 10
32.316674217
 20
4.7996138807
 30
0.0
 40
0.1844599725735171
100
AcDbArc
 50
264.8136816318
 51
353.6430007985
  0
ARC
  5
172
330
1B
100
AcDbEntity
  8
0
  6
Continuous
 62
     7
370
    25
100
AcDbCircle
 10
28.4500583622
 20
1.6617795894
 30
0.0
 40
1.469461493244156
100
AcDbArc
 50
264.1388567454
 51
271.9476496861
  0
ARC
  5
173
330
1B
100
AcDbEntity
  8
0
  6
Continuous
 62
     7
370
    25
100
AcDbCircle
 10
-32.3499416378
 20
1.6617795894
 30
0.0
 40
1.469461493243841
100
AcDbArc
 50
264.1388567454
 51
271.9476496861
  0
ARC
  5
174
330
1B
100
AcDbEntity
  8
0
  6
Continuous
 62
     7
370
    25
100
AcDbCircle
 10
-28.4500583622
 20
1.6617795894
 30
0.0
 40
1.469461493244176
100
AcDbArc
 50
268.0523503139
 51
275.8611432546
  0
ARC
  5
175
330
1B
100
AcDbEntity
  8
0
  6
Continuous
 62
     7
370
    25
100
AcDbCircle
 10
32.3499416378
 20
1.6617795894
 30
0.0
 40
1.469461493244186
100
AcDbArc
 50
268.0523503139
 51
275.8611432546
  0
ARC
  5
176
330
1B
100
AcDbEntity
  8
0
  6
Continuous
 62
     7
370
    25
100
AcDbCircle
 10
32.3
 20
0.2
 30
0.0
 40
0.199999999999992
100
AcDbArc
 50
270.0
 51
0.0
  0
ARC
  5
177
330
1B
100
AcDbEntity
  8
0
  6
Continuous
 62
     7
370
    25
100
AcDbCircle
 10
-32.3
 20
0.2
 30
0.0
 40
0.1999999999999986
100
AcDbArc
 50
180.0
 51
270.0
  0
ARC
  5
178
330
1B
100
AcDbEntity
  8
0
  6
Continuous
 62
     7
370
    25
100
AcDbCircle
 10
-28.5
 20
0.2
 30
0.0
 40
0.2000000000000028
100
AcDbArc
 50
270.0
 51
0.0
  0
ARC
  5
179
330
1B
100
AcDbEntity
  8
0
  6
Continuous
 62
     7
370
    25
100
AcDbCircle
 10
28.5
 20
0.2
 30
0.0
 40
0.2000000000000035
100
AcDbArc
 50
180.0
 51
270.0
  0
VIEWPORT
  5
347
330
1B
100
AcDbEntity
  8
0
100
AcDbViewport
 10
0.0
 20
0.0
 30
0.0
 40
205.6
 41
156.0
 68
     1
 69
     1
 12
0.0
 22
0.0
 13
0.0
 23
0.0
 14
10.0
 24
10.0
 15
10.0
 25
10.0
 16
0.0
 26
0.0
 36
1.0
 17
0.0
 27
0.0
 37
0.0
 42
50.0
 43
0.0
 44
0.0
 45
57.12
 50
0.0
 51
0.0
 72
   100
 90
   557152
  1

281
     0
 71
     1
 74
     0
110
0.0
120
0.0
130
0.0
111
1.0
121
0.0
131
0.0
112
0.0
122
1.0
132
0.0
 79
     0
146
0.0
  0
ENDBLK
  5
1D
330
1B
100
AcDbEntity
  8
0
100
AcDbBlockEnd
  0
BLOCK
  5
24
330
23
100
AcDbEntity
  8
0
100
AcDbBlockBegin
  2
*Paper_Space1
 70
     0
 10
0.0
 20
0.0
 30
0.0
  3
*Paper_Space1
  1

  0
SPLINE
  5
17A
330
23
100
AcDbEntity
  8
0
  6
Continuous
 62
     7
370
    25
100
AcDbSpline
210
0.0
220
0.0
230
1.0
 70
     8
 71
     3
 72
    28
 73
    24
 74
     0
 42
0.000000001
 43
0.00000001
 40
0.0
 40
0.0
 40
0.0
 40
0.0
 40
0.1249999999999998
 40
0.1249999999999998
 40
0.1874999999999996
 40
0.1874999999999996
 40
0.2499999999999993
 40
0.2499999999999993
 40
0.3749999999999997
 40
0.3749999999999997
 40
0.5
 40
0.5
 40
0.5625000000000002
 40
0.5625000000000002
 40
0.6250000000000004
 40
0.6250000000000004
 40
0.7500000000000003
 40
0.7500000000000003
 40
0.8125000000000002
 40
0.8125000000000002
 40
0.8750000000000001
 40
0.8750000000000001
 40
1.0
 40
1.0
 40
1.0
 40
1.0
 10
15.99448940100101
 20
16.01302368745367
 30
0.0
 10
16.77667643724754
 20
16.03458346824517
 30
0.0
 10
17.54826940968775
 20
16.07637325530665
 30
0.0
 10
18.690199233318
 20
16.16723122542951
 30
0.0
 10
19.06902176264046
 20
16.20234635321424
 30
0.0
 10
19.80667755672526
 20
16.2798870143559
 30
0.0
 10
20.16738153932301
 20
16.3224372529271
 30
0.0
 10
21.2259086100177
 20
16.45985779163366
 30
0.0
 10
21.90217133294544
 20
16.56484526734618
 30
0.0
 10
23.18349960506599
 20
16.79120280351227
 30
0.0
 10
23.77135459136377
 20
16.90935354988601
 30
0.0
 10
24.57803868823395
 20
17.08560812148677
 30
0.0
 10
24.8343179616514
 20
17.14420079443182
 30
0.0
 10
25.3211521221859
 20
17.25959619467248
 30
0.0
 10
25.55145296826519
 20
17.31636122535244
 30
0.0
 10
26.18909847973432
 20
17.47818507446246
 30
0.0
 10
26.54913552142375
 20
17.57607489877289
 30
0.0
 10
26.99102492548842
 20
17.70004982190668
 30
0.0
 10
27.12241190495756
 20
17.73772687175687
 30
0.0
 10
27.3469150087551
 20
17.80291970818131
 30
0.0
 10
27.44033136206267
 20
17.83050998401934
 30
0.0
 10
27.66524327164577
 20
17.89741958387414
 30
0.0
 10
27.7419580293793
 20
17.92089489714577
 30
0.0
 10
27.74195802937929
 20
17.92089489714577
 30
0.0
  0
SPLINE
  5
17C
330
23
100
AcDbEntity
  8
0
  6
Continuous
 62
     7
370
    25
100
AcDbSpline
210
0.0
220
0.0
230
1.0
 70
     8
 71
     3
 72
    28
 73
    24
 74
     0
 42
0.000000001
 43
0.00000001
 40
0.0
 40
0.0
 40
0.0
 40
0.0
 40
0.1250000000000006
 40
0.1250000000000006
 40
0.1875000000000008
 40
0.1875000000000008
 40
0.2500000000000011
 40
0.2500000000000011
 40
0.3750000000000013
 40
0.3750000000000013
 40
0.4375000000000014
 40
0.4375000000000014
 40
0.5000000000000014
 40
0.5000000000000014
 40
0.625000000000001
 40
0.625000000000001
 40
0.7500000000000006
 40
0.7500000000000006
 40
0.8125000000000003
 40
0.8125000000000003
 40
0.8750000000000001
 40
0.8750000000000001
 40
1.0
 40
1.0
 40
1.0
 40
1.0
 10
28.00000000000002
 20
17.72950229110662
 30
0.0
 10
28.00000000000002
 20
17.72950229110661
 30
0.0
 10
27.92130979646958
 20
17.70582310232469
 30
0.0
 10
27.69067682696874
 20
17.63836022657427
 30
0.0
 10
27.59488959496447
 20
17.61054417781211
 30
0.0
 10
27.36470326514693
 20
17.54482626742145
 30
0.0
 10
27.23002223845481
 20
17.50685683566669
 30
0.0
 10
26.77717890047491
 20
17.3819631688515
 30
0.0
 10
26.40833362572757
 20
17.2833924743847
 30
0.0
 10
25.75537124664557
 20
17.12054359771297
 30
0.0
 10
25.51957110354645
 20
17.06343296355265
 30
0.0
 10
25.02142111213257
 20
16.94741650936003
 30
0.0
 10
24.75924883350703
 20
16.88852866588935
 30
0.0
 10
23.93423458080258
 20
16.7114476117498
 30
0.0
 10
23.33329528132391
 20
16.59282560442061
 30
0.0
 10
22.02422114024717
 20
16.36572635879631
 30
0.0
 10
21.33406229332184
 20
16.26053644761314
 30
0.0
 10
20.25397408821627
 20
16.12286876871246
 30
0.0
 10
19.88600459345684
 20
16.08025417219101
 30
0.0
 10
19.13367437229873
 20
16.00261316619512
 30
0.0
 10
18.74744385614816
 20
15.96746529530551
 30
0.0
 10
17.58341438914963
 20
15.87652910912529
 30
0.0
 10
16.79702930918778
 20
15.83470235571691
 30
0.0
 10
16.00000000000002
 20
15.81309961862085
 30
0.0
  0
SPLINE
  5
1A0
330
23
100
AcDbEntity
  8
0
  6
Continuous
 62
     7
370
    25
100
AcDbSpline
210
0.0
220
0.0
230
1.0
 70
     8
 71
     3
 72
     9
 73
     5
 74
     0
 42
0.000000001
 43
0.00000001
 40
0.0
 40
0.0
 40
0.0
 40
0.0
 40
0.8312769563179859
 40
1.0
 40
1.0
 40
1.0
 40
1.0
 10
12.0122966456185
 20
16.0806588696494
 30
0.0
 10
12.40774072604442
 20
16.05734729550008
 30
0.0
 10
12.88344750153051
 20
16.02930420592307
 30
0.0
 10
13.34016646422758
 20
16.02024455721396
 30
0.0
 10
13.41722547772111
 20
16.01871598570906
 30
0.0
  0
LINE
  5
1A2
330
23
100
AcDbEntity
  8
0
  6
Continuous
 62
     7
370
    25
100
AcDbLine
 10
15.994489401
 20
16.0130236875
 30
0.0
 11
16.0
 21
15.8130996186
 31
0.0
  0
LINE
  5
1A3
330
23
100
AcDbEntity
  8
0
  6
Continuous
 62
     7
370
    25
100
AcDbLine
 10
5.7265945007
 20
4.7791899058
 30
0.0
 11
5.6110982948
 21
4.615909085
 31
0.0
  0
LINE
  5
1A4
330
23
100
AcDbEntity
  8
0
  6
Continuous
 62
     7
370
    25
100
AcDbLine
 10
-0.6693209362
 20
8.5474036076
 30
0.0
 11
-0.7561664861
 21
8.3672429835
 31
0.0
  0
LINE
  5
1A5
330
23
100
AcDbEntity
  8
0
  6
Continuous
 62
     7
370
    25
100
AcDbLine
 10
-28.0
 20
21.6256150735
 30
0.0
 11
-18.0
 21
16.90157289
 31
0.0
  0
LINE
  5
1A6
330
23
100
AcDbEntity
  8
0
  6
Continuous
 62
     7
370
    25
100
AcDbLine
 10
-18.0
 20
16.90157289
 30
0.0
 11
-18.0868455498
 21
16.7214122658
 31
0.0
  0
LINE
  5
1A7
330
23
100
AcDbEntity
  8
0
  6
Continuous
 62
     7
370
    25
100
AcDbLine
 10
-0.7561664861
 20
8.3672429835
 30
0.0
 11
-27.8868455498
 21
21.4454544494
 31
0.0
  0
LINE
  5
1A8
330
23
100
AcDbEntity
  8
0
  6
Continuous
 62
     7
370
    25
100
AcDbLine
 10
-28.0
 20
21.6256150735
 30
0.0
 11
-28.0
 21
27.720949098
 31
0.0
  0
LINE
  5
1A9
330
23
100
AcDbEntity
  8
0
  6
Continuous
 62
     7
370
    25
100
AcDbLine
 10
-18.0
 20
24.396106073
 30
0.0
 11
-28.0
 21
27.720949098
 31
0.0
  0
LINE
  5
1AA
330
23
100
AcDbEntity
  8
0
  6
Continuous
 62
     7
370
    25
100
AcDbLine
 10
-18.0
 20
24.396106073
 30
0.0
 11
-18.0
 21
16.90157289
 31
0.0
  0
LINE
  5
1AB
330
23
100
AcDbEntity
  8
0
  6
Continuous
 62
     7
370
    25
100
AcDbLine
 10
27.8
 20
0.0
 30
0.0
 11
8.1965825067
 21
0.0
 31
0.0
  0
LINE
  5
1AC
330
23
100
AcDbEntity
  8
0
  6
Continuous
 62
     7
370
    25
100
AcDbLine
 10
8.1965825067
 20
0.0
 30
0.0
 11
8.1965825067
 21
0.2
 31
0.0
  0
LINE
  5
1AD
330
23
100
AcDbEntity
  8
0
  6
Continuous
 62
     7
370
    25
100
AcDbLine
 10
8.1965825067
 20
0.2
 30
0.0
 11
28.0
 21
0.2
 31
0.0
  0
LINE
  5
1AE
330
23
100
AcDbEntity
  8
0
  6
Continuous
 62
     7
370
    25
100
AcDbLine
 10
16.0
 20
0.0
 30
0.0
 11
16.0
 21
15.8130996186
 31
0.0
  0
LINE
  5
1AF
330
23
100
AcDbEntity
  8
0
  6
Continuous
 62
     7
370
    25
100
AcDbLine
 10
0.3283677205
 20
18.1778463205
 30
0.0
 11
0.3926242689
 21
18.3672429835
 31
0.0
  0
LINE
  5
1B0
330
23
100
AcDbEntity
  8
0
  6
Continuous
 62
     7
370
    25
100
AcDbLine
 10
-18.0
 20
16.90157289
 30
0.0
 11
-0.6693209362
 21
8.5474036076
 31
0.0
  0
LINE
  5
1B1
330
23
100
AcDbEntity
  8
0
  6
Continuous
 62
     7
370
    25
100
AcDbLine
 10
0.3283677205
 20
18.1778463205
 30
0.0
 11
-18.0
 21
24.396106073
 31
0.0
  0
LINE
  5
1B2
330
23
100
AcDbEntity
  8
0
  6
Continuous
 62
     7
370
    25
100
AcDbLine
 10
8.1965825067
 20
0.2
 30
0.0
 11
7.9966992652
 21
0.1931670085
 31
0.0
  0
LINE
  5
1B3
330
23
100
AcDbEntity
  8
0
  6
Continuous
 62
     7
370
    25
100
AcDbLine
 10
-27.7357434516
 20
27.910345761
 30
0.0
 11
0.3926242689
 21
18.3672429835
 31
0.0
  0
LINE
  5
1B4
330
23
100
AcDbEntity
  8
0
  6
Continuous
 62
     7
370
    25
100
AcDbLine
 10
-18.0
 20
24.396106073
 30
0.0
 11
-17.9357434516
 21
24.5855027361
 31
0.0
  0
LINE
  5
1B5
330
23
100
AcDbEntity
  8
0
  6
Continuous
 62
     7
370
    25
100
AcDbLine
 10
28.0
 20
17.7295022911
 30
0.0
 11
28.0
 21
0.2
 31
0.0
  0
LINE
  5
1B6
330
23
100
AcDbEntity
  8
0
  6
Continuous
 62
     7
370
    25
100
AcDbLine
 10
15.8893101475
 20
16.0130776571
 30
0.0
 11
16.1614511741
 21
16.0202760401
 31
0.0
  0
ARC
  5
1B7
330
23
100
AcDbEntity
  8
0
  6
Continuous
 62
     7
370
    25
100
AcDbCircle
 10
27.8
 20
17.7295022911
 30
0.0
 40
0.1999999999999993
100
AcDbArc
 50
0.0
 51
106.8705200371
  0
ARC
  5
1B8
330
23
100
AcDbEntity
  8
0
  6
Continuous
 62
     7
370
    25
100
AcDbCircle
 10
-20.0565486515
 20
-31.6712955969
 30
0.0
 40
44.64760199819374
100
AcDbArc
 50
54.7264340147
 51
64.2638354731
  0
ARC
  5
1B9
330
23
100
AcDbEntity
  8
0
  6
Continuous
 62
     7
370
    25
100
AcDbCircle
 10
-20.0565486515
 20
-31.6712955969
 30
0.0
 40
44.44760199819788
100
AcDbArc
 50
54.7264340147
 51
64.2638354731
  0
ARC
  5
1BA
330
23
100
AcDbEntity
  8
0
  6
Continuous
 62
     7
370
    25
100
AcDbCircle
 10
-27.8
 20
21.6256150735
 30
0.0
 40
0.2000000000000107
100
AcDbArc
 50
180.0
 51
244.2638354731
  0
ARC
  5
1BB
330
23
100
AcDbEntity
  8
0
  6
Continuous
 62
     7
370
    25
100
AcDbCircle
 10
27.8
 20
0.2
 30
0.0
 40
0.1999999999999993
100
AcDbArc
 50
270.0
 51
0.0
  0
ARC
  5
1BC
330
23
100
AcDbEntity
  8
0
  6
Continuous
 62
     7
370
    25
100
AcDbCircle
 10
14.7621669456
 20
60.7215788644
 30
0.0
 40
44.92553548752783
100
AcDbArc
 50
251.2594825734
 51
271.5788701403
  0
ARC
  5
1BD
330
23
100
AcDbEntity
  8
0
  6
Continuous
 62
     7
370
    25
100
AcDbCircle
 10
14.7621669456
 20
60.7215788644
 30
0.0
 40
44.7255354875274
100
AcDbArc
 50
251.2594825734
 51
271.5788701403
  0
ARC
  5
1BE
330
23
100
AcDbEntity
  8
0
  6
Continuous
 62
     7
370
    25
100
AcDbCircle
 10
2.3460486508
 20
0.0
 30
0.0
 40
5.853951349227406
100
AcDbArc
 50
1.9578888964
 51
54.7264340147
  0
ARC
  5
1BF
330
23
100
AcDbEntity
  8
0
  6
Continuous
 62
     7
370
    25
100
AcDbCircle
 10
2.3460486508
 20
0.0
 30
0.0
 40
5.653951349227333
100
AcDbArc
 50
1.9578888964
 51
54.7264340147
  0
ARC
  5
1C0
330
23
100
AcDbEntity
  8
0
  6
Continuous
 62
     7
370
    25
100
AcDbCircle
 10
-27.8
 20
27.720949098
 30
0.0
 40
0.2000000000000097
100
AcDbArc
 50
71.2594825734
 51
180.0
  0
ARC
  5
1C1
330
23
100
AcDbEntity
  8
0
  6
Continuous
 62
     7
370
    25
100
AcDbCircle
 10
8.1965825067
 20
0.2
 30
0.0
 40
0.1999999999999985
100
AcDbArc
 50
181.9578888964
 51
270.0
  0
VIEWPORT
  5
349
330
23
100
AcDbEntity
  8
0
100
AcDbViewport
 10
0.0
 20
0.0
 30
0.0
 40
205.6
 41
156.0
 68
     1
 69
     1
 12
0.0
 22
0.0
 13
0.0
 23
0.0
 14
10.0
 24
10.0
 15
10.0
 25
10.0
 16
0.0
 26
0.0
 36
1.0
 17
0.0
 27
0.0
 37
0.0
 42
50.0
 43
0.0
 44
0.0
 45
57.12
 50
0.0
 51
0.0
 72
   100
 90
   557152
  1

281
     0
 71
     1
 74
     0
110
0.0
120
0.0
130
0.0
111
1.0
121
0.0
131
0.0
112
0.0
122
1.0
132
0.0
 79
     0
146
0.0
  0
ENDBLK
  5
25
330
23
100
AcDbEntity
  8
0
100
AcDbBlockEnd
  0
BLOCK
  5
1C4
330
1C2
100
AcDbEntity
  8
0
100
AcDbBlockBegin
  2
*Paper_Space2
 70
     0
 10
0.0
 20
0.0
 30
0.0
  3
*Paper_Space2
  1

  0
SPLINE
  5
1C6
330
1C2
100
AcDbEntity
  8
0
  6
Continuous
 62
     7
370
    25
100
AcDbSpline
210
0.0
220
0.0
230
1.0
 70
     8
 71
     3
 72
    16
 73
    12
 74
     0
 42
0.000000001
 43
0.00000001
 40
0.0
 40
0.0
 40
0.0
 40
0.0
 40
0.0312144097532531
 40
0.0774293550924822
 40
0.1301604783552896
 40
0.2035551159546387
 40
0.3242801505593241
 40
0.5382553659390671
 40
0.736354224048353
 40
0.9462676056123456
 40
1.0
 40
1.0
 40
1.0
 40
1.0
 10
32.4925955425263
 20
15.81343779010888
 30
0.0
 10
32.49263904642434
 20
15.83584150250917
 30
0.0
 10
32.49274696064715
 20
15.89141535498768
 30
0.0
 10
32.45537152628406
 20
15.94508755467445
 30
0.0
 10
32.42058555999937
 20
15.98387569883119
 30
0.0
 10
32.37808046412103
 20
16.01453894973762
 30
0.0
 10
32.31427850302126
 20
16.05095994488702
 30
0.0
 10
32.20867932921054
 20
16.09827005129188
 30
0.0
 10
32.03327629687026
 20
16.16584367093649
 30
0.0
 10
31.87536567716304
 20
16.22299723497557
 30
0.0
 10
31.75631913659138
 20
16.26173850449042
 30
0.0
 10
31.73205682612805
 20
16.26963417877208
 30
0.0
  0
SPLINE
  5
1C7
330
1C2
100
AcDbEntity
  8
0
  6
Continuous
 62
     7
370
    25
100
AcDbSpline
210
0.0
220
0.0
230
1.0
 70
     8
 71
     3
 72
    14
 73
    10
 74
     0
 42
0.000000001
 43
0.00000001
 40
0.0
 40
0.0
 40
0.0
 40
0.0
 40
0.0901422305411196
 40
0.3677750836353364
 40
0.6548593078189852
 40
0.8212710451246542
 40
0.9177222419353496
 40
0.9814216463654669
 40
1.0
 40
1.0
 40
1.0
 40
1.0
 10
-32.01178679615124
 20
16.17225728541751
 30
0.0
 10
-32.03527842218644
 20
16.16384343162539
 30
0.0
 10
-32.13112289683454
 20
16.12951539510447
 30
0.0
 10
-32.24812307703597
 20
16.08146132588741
 30
0.0
 10
-32.34747888058494
 20
16.03350715593681
 30
0.0
 10
-32.41256404615022
 20
15.99387179678678
 30
0.0
 10
-32.46190418541388
 20
15.93942657085653
 30
0.0
 10
-32.5026958071205
 20
15.86902584404548
 30
0.0
 10
-32.49588473646997
 20
15.82405690432403
 30
0.0
 10
-32.49434679374825
 20
15.81390289813371
 30
0.0
  0
SPLINE
  5
1C9
330
1C2
100
AcDbEntity
  8
0
  6
Continuous
 62
     7
370
    25
100
AcDbSpline
210
0.0
220
0.0
230
1.0
 70
     8
 71
     3
 72
    23
 73
    19
 74
     0
 42
0.000000001
 43
0.00000001
 40
0.0
 40
0.0
 40
0.0
 40
0.0
 40
0.0328603169867861
 40
0.0954893157476432
 40
0.1582892649070261
 40
0.2213815036931011
 40
0.2848972805370509
 40
0.3489541902273177
 40
0.413652412392054
 40
0.4790715183583211
 40
0.5452681181482476
 40
0.6122748132179824
 40
0.6801012515614804
 40
0.7487386247128262
 40
0.8181697349481174
 40
0.8883875915213844
 40
0.9594253204009355
 40
1.0
 40
1.0
 40
1.0
 40
1.0
 10
21.29999999999993
 20
19.5938436145737
 30
0.0
 10
21.40436924849084
 20
19.59317428170773
 30
0.0
 10
21.70765750123353
 20
19.59122925672807
 30
0.0
 10
22.20883817974776
 20
19.5695614756324
 30
0.0
 10
22.7975798176971
 20
19.52105291014833
 30
0.0
 10
23.37587701618769
 20
19.44853952558222
 30
0.0
 10
23.93976041494532
 20
19.35288956261874
 30
0.0
 10
24.48535474296812
 20
19.23457291476331
 30
0.0
 10
25.00876389293849
 20
19.09435823396956
 30
0.0
 10
25.50609181363314
 20
18.93315371857476
 30
0.0
 10
25.97346917268912
 20
18.75208279682077
 30
0.0
 10
26.40707450513969
 20
18.55249688500239
 30
0.0
 10
26.80328720553504
 20
18.33600459593827
 30
0.0
 10
27.15844598031776
 20
18.10447372997725
 30
0.0
 10
27.47023361313747
 20
17.86005077809377
 30
0.0
 10
27.73301351690321
 20
17.60496738988368
 30
0.0
 10
27.9233517296044
 20
17.38060560022301
 30
0.0
 10
28.0049421804966
 20
17.24147470431284
 30
0.0
 10
28.03460291847743
 20
17.19089617455226
 30
0.0
  0
SPLINE
  5
1CA
330
1C2
100
AcDbEntity
  8
0
  6
Continuous
 62
     7
370
    25
100
AcDbSpline
210
0.0
220
0.0
230
1.0
 70
     8
 71
     3
 72
    23
 73
    19
 74
     0
 42
0.000000001
 43
0.00000001
 40
0.0
 40
0.0
 40
0.0
 40
0.0
 40
0.0340602089065593
 40
0.1067537620485171
 40
0.178079886516509
 40
0.2483020375998436
 40
0.3175686549642625
 40
0.3859466222697391
 40
0.4534635433899226
 40
0.5201381599009948
 40
0.585998330376546
 40
0.6510900833891663
 40
0.7154809952625458
 40
0.7792601344922788
 40
0.8425359678450212
 40
0.9054330633894748
 40
0.9680880895209074
 40
1.0
 40
1.0
 40
1.0
 40
1.0
 10
-28.0354882510503
 20
17.18860755472037
 30
0.0
 10
-28.01141630997158
 20
17.23110528169282
 30
0.0
 10
-27.9359684383213
 20
17.36430447155292
 30
0.0
 10
-27.75184270663037
 20
17.58444142103073
 30
0.0
 10
-27.48846857735244
 20
17.84445228846776
 30
0.0
 10
-27.17532475735183
 20
18.09249935016056
 30
0.0
 10
-26.81869112601161
 20
18.32690811313033
 30
0.0
 10
-26.42053259612963
 20
18.54582643438853
 30
0.0
 10
-25.98449193610271
 20
18.74750181973508
 30
0.0
 10
-25.51422300372191
 20
18.9303404883834
 30
0.0
 10
-25.0136944661915
 20
19.09296771585322
 30
0.0
 10
-24.48698382537414
 20
19.23423583893493
 30
0.0
 10
-23.93822837218703
 20
19.35323146901066
 30
0.0
 10
-23.37156724278051
 20
19.44920881257937
 30
0.0
 10
-22.79109505482205
 20
19.52174805770755
 30
0.0
 10
-22.20089790934875
 20
19.57006891884464
 30
0.0
 10
-21.7019579889104
 20
19.59133396182855
 30
0.0
 10
-21.40141812369128
 20
19.5932104034433
 30
0.0
 10
-21.30000000000001
 20
19.5938436145737
 30
0.0
  0
SPLINE
  5
1CB
330
1C2
100
AcDbEntity
  8
0
  6
Continuous
 62
     7
370
    25
100
AcDbSpline
210
0.0
220
0.0
230
1.0
 70
     8
 71
     3
 72
     9
 73
     5
 74
     0
 42
0.000000001
 43
0.00000001
 40
0.0
 40
0.0
 40
0.0
 40
0.0
 40
0.4488769767466385
 40
1.0
 40
1.0
 40
1.0
 40
1.0
 10
23.36095334559861
 20
27.90590939180689
 30
0.0
 10
23.23249879933914
 20
27.91022526528082
 30
0.0
 10
22.94633008738941
 20
27.91984009004909
 30
0.0
 10
22.6585836735342
 20
27.92055506100564
 30
0.0
 10
22.5
 20
27.92094909796075
 30
0.0
  0
SPLINE
  5
1CC
330
1C2
100
AcDbEntity
  8
0
  6
Continuous
 62
     7
370
    25
100
AcDbSpline
210
0.0
220
0.0
230
1.0
 70
     8
 71
     3
 72
    28
 73
    24
 74
     0
 42
0.000000001
 43
0.00000001
 40
0.0
 40
0.0
 40
0.0
 40
0.0
 40
0.0277724572277489
 40
0.0764295713882023
 40
0.125396772593414
 40
0.1753330767582717
 40
0.2263760436087224
 40
0.2781872086577923
 40
0.3302760133313402
 40
0.3821830332076676
 40
0.4337477406003873
 40
0.4849108494374088
 40
0.5356606321538557
 40
0.5860066539533471
 40
0.6359683700447599
 40
0.6855707546044023
 40
0.7348428278241184
 40
0.7838172211272559
 40
0.8325300094695145
 40
0.8810205160346717
 40
0.9293309943620721
 40
0.9775061738948716
 40
1.0
 40
1.0
 40
1.0
 40
1.0
 10
32.49999999999999
 20
24.39610607298472
 30
0.0
 10
32.49816799431873
 20
24.44806455628449
 30
0.0
 10
32.49312632991536
 20
24.59105387033821
 30
0.0
 10
32.43962802660559
 20
24.8235470157081
 30
0.0
 10
32.32560629684473
 20
25.08949173273559
 30
0.0
 10
32.15663074645238
 20
25.34993902847167
 30
0.0
 10
31.93304296212025
 20
25.60485050442399
 30
0.0
 10
31.65476549197128
 20
25.85284834691877
 30
0.0
 10
31.3239341956897
 20
26.09173456634654
 30
0.0
 10
30.94374196823827
 20
26.31956653688969
 30
0.0
 10
30.51768758281387
 20
26.53496470267973
 30
0.0
 10
30.04884306164506
 20
26.73708824107393
 30
0.0
 10
29.54020550165585
 20
26.92524635206535
 30
0.0
 10
28.99480023714883
 20
27.09880584627899
 30
0.0
 10
28.41573962297792
 20
27.25716538625767
 30
0.0
 10
27.80624364817963
 20
27.39976054678635
 30
0.0
 10
27.16963390360395
 20
27.5260624345065
 30
0.0
 10
26.5093312076041
 20
27.63562804100187
 30
0.0
 10
25.82879570064399
 20
27.727956280656
 30
0.0
 10
25.13166614480124
 20
27.80305192004269
 30
0.0
 10
24.42116248507962
 20
27.85935371342265
 30
0.0
 10
23.82949959052626
 20
27.89398688038067
 30
0.0
 10
23.47408212838058
 20
27.90303074488579
 30
0.0
 10
23.36095334559861
 20
27.90590939180689
 30
0.0
  0
SPLINE
  5
1CD
330
1C2
100
AcDbEntity
  8
0
  6
Continuous
 62
     7
370
    25
100
AcDbSpline
210
0.0
220
0.0
230
1.0
 70
     8
 71
     3
 72
    27
 73
    23
 74
     0
 42
0.000000001
 43
0.00000001
 40
0.0
 40
0.0
 40
0.0
 40
0.0
 40
0.0211400094962969
 40
0.0715724581980546
 40
0.1221521117836477
 40
0.1729241029503146
 40
0.2239305529434073
 40
0.2752100958438214
 40
0.326797553249422
 40
0.3787237771039389
 40
0.43101565068929
 40
0.4836961657916293
 40
0.5367843165119905
 40
0.5902941266847963
 40
0.644231152228635
 40
0.6985826912874713
 40
0.7532940476125095
 40
0.808219189170911
 40
0.8629122054010218
 40
0.9167892242795512
 40
0.9693875363176957
 40
1.0
 40
1.0
 40
1.0
 40
1.0
 10
-24.02400861325134
 20
27.8785417363108
 30
0.0
 10
-24.1248466795522
 20
27.8737280162034
 30
0.0
 10
-24.46624805339525
 20
27.85743049366798
 30
0.0
 10
-25.03836923971477
 20
27.81073853283815
 30
0.0
 10
-25.73618948208783
 20
27.73924280109502
 30
0.0
 10
-26.41691549061602
 20
27.64926331393248
 30
0.0
 10
-27.07777245173837
 20
27.5425435094906
 30
0.0
 10
-27.71517595934454
 20
27.41913319255342
 30
0.0
 10
-28.32585393405707
 20
27.2796132813127
 30
0.0
 10
-28.90656518876882
 20
27.12448795827342
 30
0.0
 10
-29.4541991275853
 20
26.95433614920773
 30
0.0
 10
-29.96577292143687
 20
26.76975103583787
 30
0.0
 10
-30.43845266352863
 20
26.57132779170183
 30
0.0
 10
-30.86955461321632
 20
26.35962806575704
 30
0.0
 10
-31.25652590881414
 20
26.13514424692521
 30
0.0
 10
-31.59686401435298
 20
25.89827615984206
 30
0.0
 10
-31.88800612338852
 20
25.64937250827933
 30
0.0
 10
-32.12679510916431
 20
25.38915606988669
 30
0.0
 10
-32.31019221107952
 20
25.11917672168396
 30
0.0
 10
-32.43411387901149
 20
24.84236195742059
 30
0.0
 10
-32.49244740176794
 20
24.59964107351586
 30
0.0
 10
-32.49796874838303
 20
24.4508462810875
 30
0.0
 10
-32.49999999999999
 20
24.39610607298473
 30
0.0
  0
SPLINE
  5
1CE
330
1C2
100
AcDbEntity
  8
0
  6
Continuous
 62
     7
370
    25
100
AcDbSpline
210
0.0
220
0.0
230
1.0
 70
     8
 71
     3
 72
    10
 73
     6
 74
     0
 42
0.000000001
 43
0.00000001
 40
0.0
 40
0.0
 40
0.0
 40
0.0
 40
0.2496616857780477
 40
0.7243516656595146
 40
1.0
 40
1.0
 40
1.0
 40
1.0
 10
-22.50000000000002
 20
27.92094909796075
 30
0.0
 10
-22.62743014608249
 20
27.92038578983512
 30
0.0
 10
-22.99714742281407
 20
27.91875144543098
 30
0.0
 10
-23.50750338693885
 20
27.90692759645761
 30
0.0
 10
-23.88524091533765
 20
27.88616806856303
 30
0.0
 10
-24.02400861325134
 20
27.8785417363108
 30
0.0
  0
SPLINE
  5
1D2
330
1C2
100
AcDbEntity
  8
0
  6
Continuous
 62
     7
370
    25
100
AcDbSpline
210
0.0
220
0.0
230
1.0
 70
     8
 71
     3
 72
    19
 73
    15
 74
     0
 42
0.000000001
 43
0.00000001
 40
0.0
 40
0.0
 40
0.0
 40
0.0
 40
0.0923817489578373
 40
0.1847662239886953
 40
0.2766416397485111
 40
0.3688372718527327
 40
0.4607316672067959
 40
0.5512266526677724
 40
0.6420043124266365
 40
0.7325020141186541
 40
0.8208371551635162
 40
0.9094352971296065
 40
0.9977563497320308
 40
0.9999999999999999
 40
0.9999999999999999
 40
0.9999999999999999
 40
0.9999999999999999
 10
20.5
 20
17.92089489714578
 30
0.0
 10
20.95368321249494
 20
17.91621384195745
 30
0.0
 10
21.86106302512448
 20
17.90685159344855
 30
0.0
 10
23.20043291947097
 20
17.83469792840915
 30
0.0
 10
24.50004448474051
 20
17.72261648074519
 30
0.0
 10
25.74248313063416
 20
17.57465797498663
 30
0.0
 10
26.90938934842893
 20
17.39995741176598
 30
0.0
 10
27.98474724803681
 20
17.20605972098206
 30
0.0
 10
28.96125277470038
 20
17.00333396727067
 30
0.0
 10
29.82516029485632
 20
16.80120104579237
 30
0.0
 10
30.5712526665656
 20
16.6077609061057
 30
0.0
 10
31.17659179452606
 20
16.43465637438455
 30
0.0
 10
31.54168148098518
 20
16.32320965286488
 30
0.0
 10
31.66222253659085
 20
16.2810463471859
 30
0.0
 10
31.66520882112708
 20
16.28000179330247
 30
0.0
  0
SPLINE
  5
1D3
330
1C2
100
AcDbEntity
  8
0
  6
Continuous
 62
     7
370
    25
100
AcDbSpline
210
0.0
220
0.0
230
1.0
 70
     8
 71
     3
 72
    22
 73
    18
 74
     0
 42
0.000000001
 43
0.00000001
 40
0.0
 40
0.0
 40
0.0
 40
0.0
 40
0.125
 40
0.125
 40
0.25
 40
0.25
 40
0.375
 40
0.375
 40
0.5
 40
0.5
 40
0.625
 40
0.625
 40
0.75
 40
0.75
 40
0.875
 40
0.875
 40
1.0
 40
1.0
 40
1.0
 40
1.0
 10
-31.96228182723006
 20
16.17731694112329
 30
0.0
 10
-31.80445264622059
 20
16.23534593548436
 30
0.0
 10
-31.59520234981965
 20
16.30517721810462
 30
0.0
 10
-31.07946540337285
 20
16.46324799329102
 30
0.0
 10
-30.77296446355238
 20
16.55151536956048
 30
0.0
 10
-30.05952796604731
 20
16.74139067676053
 30
0.0
 10
-29.66018997390811
 20
16.84088443406408
 30
0.0
 10
-28.78625803043057
 20
17.0403492694646
 30
0.0
 10
-28.31061188046327
 20
17.14063674018887
 30
0.0
 10
-27.27834670526199
 20
17.33516749225424
 30
0.0
 10
-26.73181412483926
 20
17.42737255579171
 30
0.0
 10
-25.59023159234208
 20
17.5933223867133
 30
0.0
 10
-24.99343314448909
 20
17.66742852818556
 30
0.0
 10
-23.74461653339314
 20
17.79118384992978
 30
0.0
 10
-23.10819071810194
 20
17.8391779410315
 30
0.0
 10
-21.81856933573799
 20
17.90397364634988
 30
0.0
 10
-21.16427301810736
 20
17.92089489714577
 30
0.0
 10
-20.5
 20
17.92089489714577
 30
0.0
  0
SPLINE
  5
1D5
330
1C2
100
AcDbEntity
  8
0
  6
Continuous
 62
     7
370
    25
100
AcDbSpline
210
0.0
220
0.0
230
1.0
 70
     8
 71
     3
 72
    30
 73
    26
 74
     0
 42
0.000000001
 43
0.00000001
 40
0.0
 40
0.0
 40
0.0
 40
0.0
 40
0.1249999999999999
 40
0.1249999999999999
 40
0.1874999999999999
 40
0.1874999999999999
 40
0.25
 40
0.25
 40
0.3750000000000001
 40
0.3750000000000001
 40
0.4375000000000001
 40
0.4375000000000001
 40
0.5
 40
0.5
 40
0.6250000000000003
 40
0.6250000000000003
 40
0.6875000000000002
 40
0.6875000000000002
 40
0.7500000000000002
 40
0.7500000000000002
 40
0.8125000000000001
 40
0.8125000000000001
 40
0.8750000000000001
 40
0.8750000000000001
 40
1.0
 40
1.0
 40
1.0
 40
1.0
 10
32.5
 20
15.81309961862085
 30
0.0
 10
32.5
 20
15.83470465559171
 30
0.0
 10
32.42137553294383
 20
15.87642133374878
 30
0.0
 10
32.19125117195554
 20
15.96623193662574
 30
0.0
 10
32.09570156929424
 20
16.00071305606366
 30
0.0
 10
31.8661841419659
 20
16.07829917238048
 30
0.0
 10
31.73179165611357
 20
16.12150940937912
 30
0.0
 10
31.27984864115888
 20
16.25990725371801
 30
0.0
 10
30.91177254026308
 20
16.36467061929917
 30
0.0
 10
30.26038726611576
 20
16.53352694632328
 30
0.0
 10
30.02526079560527
 20
16.59207520055601
 30
0.0
 10
29.52727137801842
 20
16.7101908961391
 30
0.0
 10
29.26520659803785
 20
16.76959572513631
 30
0.0
 10
28.44065045779064
 20
16.94671331645078
 30
0.0
 10
27.84019807057023
 20
17.06338360556904
 30
0.0
 10
26.85957920769582
 20
17.22736180092499
 30
0.0
 10
26.52125428816647
 20
17.27979048646318
 30
0.0
 10
25.83185507703229
 20
17.37737771390202
 30
0.0
 10
25.47934003434316
 20
17.42278304101839
 30
0.0
 10
24.758661464016
 20
17.50565032437667
 30
0.0
 10
24.39049860305036
 20
17.54311397330811
 30
0.0
 10
23.63805216688653
 20
17.60887771931253
 30
0.0
 10
23.25175706528404
 20
17.63727973541356
 30
0.0
 10
22.08501866859496
 20
17.70580762569248
 30
0.0
 10
21.29746985468707
 20
17.72950229110661
 30
0.0
 10
20.5
 20
17.7295022911066
 30
0.0
  0
SPLINE
  5
1D6
330
1C2
100
AcDbEntity
  8
0
  6
Continuous
 62
     7
370
    25
100
AcDbSpline
210
0.0
220
0.0
230
1.0
 70
     8
 71
     3
 72
    28
 73
    24
 74
     0
 42
0.000000001
 43
0.00000001
 40
0.0
 40
0.0
 40
0.0
 40
0.0
 40
0.1250000000000006
 40
0.1250000000000006
 40
0.1875000000000008
 40
0.1875000000000008
 40
0.2500000000000011
 40
0.2500000000000011
 40
0.3750000000000013
 40
0.3750000000000013
 40
0.4375000000000014
 40
0.4375000000000014
 40
0.5000000000000014
 40
0.5000000000000014
 40
0.625000000000001
 40
0.625000000000001
 40
0.7500000000000006
 40
0.7500000000000006
 40
0.8125000000000003
 40
0.8125000000000003
 40
0.8750000000000001
 40
0.8750000000000001
 40
1.0
 40
1.0
 40
1.0
 40
1.0
 10
-20.5
 20
17.72950229110662
 30
0.0
 10
-21.29743737423006
 20
17.72950229110661
 30
0.0
 10
-22.080685356146
 20
17.70582310232469
 30
0.0
 10
-23.23534708803295
 20
17.63836022657427
 30
0.0
 10
-23.61684198302304
 20
17.61054417781211
 30
0.0
 10
-24.37294311366808
 20
17.54482626742145
 30
0.0
 10
-24.7474667894555
 20
17.50685683566669
 30
0.0
 10
-25.83572013527934
 20
17.3819631688515
 30
0.0
 10
-26.52322580988975
 20
17.2833924743847
 30
0.0
 10
-27.49899252360398
 20
17.12054359771297
 30
0.0
 10
-27.81653187302769
 20
17.06343296355265
 30
0.0
 10
-28.42261533599069
 20
16.94741650936003
 30
0.0
 10
-28.71138101231159
 20
16.88852866588935
 30
0.0
 10
-29.53619359262396
 20
16.7114476117498
 30
0.0
 10
-30.03118374201209
 20
16.59282560442061
 30
0.0
 10
-30.90814310338218
 20
16.36572635879631
 30
0.0
 10
-31.27757930257116
 20
16.26053644761314
 30
0.0
 10
-31.72745801594674
 20
16.12286876871246
 30
0.0
 10
-31.86018072311768
 20
16.08025417219101
 30
0.0
 10
-32.09029001753886
 20
16.00261316619512
 30
0.0
 10
-32.18794927017968
 20
15.96746529530551
 30
0.0
 10
-32.42137669953232
 20
15.87652910912529
 30
0.0
 10
-32.50000000000001
 20
15.83470235571691
 30
0.0
 10
-32.50000000000001
 20
15.81309961862085
 30
0.0
  0
LWPOLYLINE
  5
1EF
330
1C2
100
AcDbEntity
  8
0
  6
Continuous
 62
     7
370
    25
100
AcDbPolyline
 90
       21
 70
   128
 43
0.0
 10
-22.5
 20
27.910345761
 10
-23.2688991381
 20
27.9000963796
 10
-24.0330577574
 20
27.8694114262
 10
-24.7877645658
 20
27.8184800836
 10
-25.5283665449
 20
27.7476163606
 10
-26.2502976372
 20
27.6572571557
 10
-26.9491068974
 20
27.5479595632
 10
-27.6204859342
 20
27.4203974393
 10
-28.2602954725
 20
27.2753572469
 10
-28.8645908736
 20
27.1137332069
 10
-29.4296464556
 20
26.9365217854
 10
-29.9519784629
 20
26.7448155496
 10
-30.4283665449
 20
26.5397964323
 10
-30.8558736107
 20
26.3227284445
 10
-31.231863937
 20
26.0949498825
 10
-31.5540194186
 20
25.8578650769
 10
-31.8203538597
 20
25.6129357344
 10
-32.0292252199
 20
25.3616719258
 10
-32.1793457378
 20
25.105622776
 10
-32.2697898706
 20
24.8463669132
 10
-32.3
 20
24.5855027361
  0
LWPOLYLINE
  5
1F1
330
1C2
100
AcDbEntity
  8
0
  6
Continuous
 62
     7
370
    25
100
AcDbPolyline
 90
       21
 70
   128
 43
0.0
 10
32.3
 20
24.5855027361
 10
32.2697898706
 20
24.8463669132
 10
32.1793457378
 20
25.105622776
 10
32.0292252199
 20
25.3616719258
 10
31.8203538597
 20
25.6129357344
 10
31.5540194186
 20
25.8578650769
 10
31.231863937
 20
26.0949498825
 10
30.8558736107
 20
26.3227284445
 10
30.4283665449
 20
26.5397964323
 10
29.9519784629
 20
26.7448155496
 10
29.4296464556
 20
26.9365217854
 10
28.8645908736
 20
27.1137332069
 10
28.2602954725
 20
27.2753572469
 10
27.6204859342
 20
27.4203974393
 10
26.9491068974
 20
27.5479595632
 10
26.2502976372
 20
27.6572571557
 10
25.5283665449
 20
27.7476163606
 10
24.7877645658
 20
27.8184800836
 10
24.0330577574
 20
27.8694114262
 10
23.2688991381
 20
27.9000963796
 10
22.5
 20
27.910345761
  0
LWPOLYLINE
  5
1F4
330
1C2
100
AcDbEntity
  8
0
  6
Continuous
 62
     7
370
    25
100
AcDbPolyline
 90
       18
 70
   128
 43
0.0
 10
21.3
 20
26.6211209146
 10
21.9643321881
 20
26.6107006087
 10
22.6229965283
 20
26.5795285933
 10
23.2703735285
 20
26.527870817
 10
23.9009399965
 20
26.4561680058
 10
24.5093161616
 20
26.3650319028
 10
25.0903115727
 20
26.255240049
 10
25.6389693819
 20
26.1277291499
 10
26.1506086343
 20
25.9835870836
 10
26.620864204
 20
25.8240436192
 10
27.0457240364
 20
25.6504599254
 10
27.4215633773
 20
25.464316957
 10
27.7451756978
 20
25.2672028202
 10
28.0138000517
 20
25.0607992234
 10
28.2251446308
 20
24.8468671292
 10
28.3774063177
 20
24.6272317309
 10
28.4692860693
 20
24.4037668802
 10
28.5
 20
24.1783791004
  0
LWPOLYLINE
  5
1F6
330
1C2
100
AcDbEntity
  8
0
  6
Continuous
 62
     7
370
    25
100
AcDbPolyline
 90
       18
 70
   128
 43
0.0
 10
-28.5
 20
24.1783791004
 10
-28.4692860693
 20
24.4037668802
 10
-28.3774063177
 20
24.6272317309
 10
-28.2251446308
 20
24.8468671292
 10
-28.0138000517
 20
25.0607992234
 10
-27.7451756978
 20
25.2672028202
 10
-27.4215633773
 20
25.464316957
 10
-27.0457240364
 20
25.6504599254
 10
-26.620864204
 20
25.8240436192
 10
-26.1506086343
 20
25.9835870836
 10
-25.6389693819
 20
26.1277291499
 10
-25.0903115727
 20
26.255240049
 10
-24.5093161616
 20
26.3650319028
 10
-23.9009399965
 20
26.4561680058
 10
-23.2703735285
 20
26.527870817
 10
-22.6229965283
 20
26.5795285933
 10
-21.9643321881
 20
26.6107006087
 10
-21.3
 20
26.6211209146
  0
LWPOLYLINE
  5
200
330
1C2
100
AcDbEntity
  8
0
  6
Continuous
 62
     7
370
    25
100
AcDbPolyline
 90
       18
 70
   128
 43
0.0
 10
-21.3
 20
26.4317242515
 10
-21.9458785162
 20
26.4213039456
 10
-22.5862466247
 20
26.3901319302
 10
-23.2156409305
 20
26.3384741539
 10
-23.8286916633
 20
26.2667713427
 10
-24.4201684904
 20
26.1756352397
 10
-24.9850251401
 20
26.0658433859
 10
-25.5184424547
 20
25.9383324869
 10
-26.0158695055
 20
25.7941904205
 10
-26.4730624205
 20
25.6346469561
 10
-26.886120591
 20
25.4610632623
 10
-27.2515199501
 20
25.2749202939
 10
-27.5661430395
 20
25.0778061572
 10
-27.8273056058
 20
24.8714025603
 10
-28.0327795022
 20
24.6574704661
 10
-28.1808116978
 20
24.4378350678
 10
-28.2701392341
 20
24.2143702171
 10
-28.3
 20
23.9889824373
  0
LWPOLYLINE
  5
202
330
1C2
100
AcDbEntity
  8
0
  6
Continuous
 62
     7
370
    25
100
AcDbPolyline
 90
       18
 70
   128
 43
0.0
 10
28.3
 20
23.9889824373
 10
28.2701392341
 20
24.2143702171
 10
28.1808116978
 20
24.4378350678
 10
28.0327795022
 20
24.6574704661
 10
27.8273056058
 20
24.8714025603
 10
27.5661430395
 20
25.0778061572
 10
27.2515199501
 20
25.2749202939
 10
26.886120591
 20
25.4610632623
 10
26.4730624205
 20
25.6346469561
 10
26.0158695055
 20
25.7941904205
 10
25.5184424547
 20
25.9383324869
 10
24.9850251401
 20
26.0658433859
 10
24.4201684904
 20
26.1756352397
 10
23.8286916633
 20
26.2667713427
 10
23.2156409305
 20
26.3384741539
 10
22.5862466247
 20
26.3901319302
 10
21.9458785162
 20
26.4213039456
 10
21.3
 20
26.4317242515
  0
LWPOLYLINE
  5
20F
330
1C2
100
AcDbEntity
  8
0
  6
Continuous
 62
     8
370
    25
100
AcDbPolyline
 90
       16
 70
   128
 43
0.0
 10
21.3
 20
19.7938436146
 10
21.9458785162
 20
19.7790381142
 10
22.5862466247
 20
19.7347479282
 10
23.2156409305
 20
19.661350925
 10
23.8286916633
 20
19.5594733018
 10
24.4201684904
 20
19.4299842426
 10
24.9850251401
 20
19.2739885025
 10
25.5184424547
 20
19.0928169821
 10
26.0158695055
 20
18.8880153728
 10
26.4730624205
 20
18.6613309699
 10
26.886120591
 20
18.4146977648
 10
27.2515199501
 20
18.1502199449
 10
27.5661430395
 20
17.8701539417
 10
27.8273056058
 20
17.5768891798
 10
28.0327795022
 20
17.2729276905
 10
28.0779807268
 20
17.1903007805
  0
LWPOLYLINE
  5
210
330
1C2
100
AcDbEntity
  8
0
  6
Continuous
 62
     8
370
    25
100
AcDbPolyline
 90
       16
 70
   128
 43
0.0
 10
-28.0788409373
 20
17.1886462258
 10
-28.0327795022
 20
17.2729276905
 10
-27.8273056058
 20
17.5768891798
 10
-27.5661430395
 20
17.8701539417
 10
-27.2515199501
 20
18.1502199449
 10
-26.886120591
 20
18.4146977648
 10
-26.4730624205
 20
18.6613309699
 10
-26.0158695055
 20
18.8880153728
 10
-25.5184424547
 20
19.0928169821
 10
-24.9850251401
 20
19.2739885025
 10
-24.4201684904
 20
19.4299842426
 10
-23.8286916633
 20
19.5594733018
 10
-23.2156409305
 20
19.661350925
 10
-22.5862466247
 20
19.7347479282
 10
-21.9458785162
 20
19.7790381142
 10
-21.3
 20
19.7938436146
  0
LINE
  5
214
330
1C2
100
AcDbEntity
  8
0
  6
Continuous
 62
     7
370
    25
100
AcDbLine
 10
20.5
 20
17.9295022911
 30
0.0
 11
-20.5
 21
17.9295022911
 31
0.0
  0
LINE
  5
215
330
1C2
100
AcDbEntity
  8
0
  6
Continuous
 62
     7
370
    25
100
AcDbLine
 10
-21.3
 20
19.5938436146
 30
0.0
 11
21.3
 21
19.5938436146
 31
0.0
  0
LINE
  5
216
330
1C2
100
AcDbEntity
  8
0
  6
Continuous
 62
     7
370
    25
100
AcDbLine
 10
22.5
 20
27.920949098
 30
0.0
 11
-22.5
 21
27.920949098
 31
0.0
  0
LINE
  5
217
330
1C2
100
AcDbEntity
  8
0
  6
Continuous
 62
     7
370
    25
100
AcDbLine
 10
32.3
 20
18.3672429835
 30
0.0
 11
28.5
 21
18.3672429835
 31
0.0
  0
LINE
  5
218
330
1C2
100
AcDbEntity
  8
0
  6
Continuous
 62
     7
370
    25
100
AcDbLine
 10
-28.5
 20
18.3672429835
 30
0.0
 11
-32.3
 21
18.3672429835
 31
0.0
  0
LINE
  5
219
330
1C2
100
AcDbEntity
  8
0
  6
Continuous
 62
     7
370
    25
100
AcDbLine
 10
32.5
 20
24.396106073
 30
0.0
 11
32.5
 21
0.2
 31
0.0
  0
LINE
  5
21A
330
1C2
100
AcDbEntity
  8
0
  6
Continuous
 62
     7
370
    25
100
AcDbLine
 10
20.5
 20
0.0
 30
0.0
 11
20.5
 21
17.9295022911
 31
0.0
  0
LINE
  5
21B
330
1C2
100
AcDbEntity
  8
0
  6
Continuous
 62
     7
370
    25
100
AcDbLine
 10
-32.5
 20
0.2
 30
0.0
 11
32.5
 21
0.2
 31
0.0
  0
LINE
  5
21C
330
1C2
100
AcDbEntity
  8
0
  6
Continuous
 62
     7
370
    25
100
AcDbLine
 10
-20.5
 20
17.9295022911
 30
0.0
 11
-20.5
 21
0.0
 31
0.0
  0
LINE
  5
21D
330
1C2
100
AcDbEntity
  8
0
  6
Continuous
 62
     7
370
    25
100
AcDbLine
 10
32.3
 20
0.0
 30
0.0
 11
-32.3
 21
0.0
 31
0.0
  0
LINE
  5
21E
330
1C2
100
AcDbEntity
  8
0
  6
Continuous
 62
     7
370
    25
100
AcDbLine
 10
20.5
 20
17.7295022911
 30
0.0
 11
-20.5
 21
17.7295022911
 31
0.0
  0
LINE
  5
21F
330
1C2
100
AcDbEntity
  8
0
  6
Continuous
 62
     7
370
    25
100
AcDbLine
 10
-32.5
 20
0.2
 30
0.0
 11
-32.5
 21
24.396106073
 31
0.0
  0
LINE
  5
220
330
1C2
100
AcDbEntity
  8
0
  6
Continuous
 62
     7
370
    25
100
AcDbLine
 10
-28.3
 20
23.9889824373
 30
0.0
 11
-28.3
 21
17.1230874745
 31
0.0
  0
LINE
  5
221
330
1C2
100
AcDbEntity
  8
0
  6
Continuous
 62
     7
370
    25
100
AcDbLine
 10
28.3
 20
17.1065559038
 30
0.0
 11
28.3
 21
23.9889824373
 31
0.0
  0
LINE
  5
222
330
1C2
100
AcDbEntity
  8
0
  6
Continuous
 62
     7
370
    25
100
AcDbLine
 10
-32.3
 20
24.5855027361
 30
0.0
 11
-32.3
 21
15.9960433769
 31
0.0
  0
LINE
  5
223
330
1C2
100
AcDbEntity
  8
0
  6
Continuous
 62
     7
370
    25
100
AcDbLine
 10
22.5
 20
27.910345761
 30
0.0
 11
-22.5
 21
27.910345761
 31
0.0
  0
LINE
  5
224
330
1C2
100
AcDbEntity
  8
0
  6
Continuous
 62
     7
370
    25
100
AcDbLine
 10
32.3
 20
15.9960433769
 30
0.0
 11
32.3
 21
24.5855027361
 31
0.0
  0
LINE
  5
225
330
1C2
100
AcDbEntity
  8
0
  6
Continuous
 62
     7
370
    25
100
AcDbLine
 10
28.5
 20
24.1783791004
 30
0.0
 11
28.5
 21
17.0647024506
 31
0.0
  0
LINE
  5
226
330
1C2
100
AcDbEntity
  8
0
  6
Continuous
 62
     7
370
    25
100
AcDbLine
 10
-21.3
 20
26.6211209146
 30
0.0
 11
21.3
 21
26.6211209146
 31
0.0
  0
LINE
  5
227
330
1C2
100
AcDbEntity
  8
0
  6
Continuous
 62
     7
370
    25
100
AcDbLine
 10
-28.5
 20
17.0820284639
 30
0.0
 11
-28.5
 21
24.1783791004
 31
0.0
  0
LINE
  5
228
330
1C2
100
AcDbEntity
  8
0
  6
Continuous
 62
     7
370
    25
100
AcDbLine
 10
-21.3
 20
26.6211209146
 30
0.0
 11
-21.3
 21
19.5938437894
 31
0.0
  0
LINE
  5
229
330
1C2
100
AcDbEntity
  8
0
  6
Continuous
 62
     7
370
    25
100
AcDbLine
 10
21.3
 20
19.5938438031
 30
0.0
 11
21.3
 21
26.6211209146
 31
0.0
  0
LINE
  5
22A
330
1C2
100
AcDbEntity
  8
0
  6
Continuous
 62
     7
370
    25
100
AcDbLine
 10
21.3
 20
26.4317242515
 30
0.0
 11
-21.3
 21
26.4317242515
 31
0.0
  0
LINE
  5
22B
330
1C2
100
AcDbEntity
  8
0
  6
Continuous
 62
     7
370
    25
100
AcDbLine
 10
-21.3
 20
19.7938436146
 30
0.0
 11
21.3
 21
19.7938436146
 31
0.0
  0
LINE
  5
22C
330
1C2
100
AcDbEntity
  8
0
  6
Continuous
 62
     8
370
    25
100
AcDbLine
 10
22.5
 20
27.9209490869
 30
0.0
 11
22.5
 21
27.910345761
 31
0.0
  0
LINE
  5
22D
330
1C2
100
AcDbEntity
  8
0
  6
Continuous
 62
     8
370
    25
100
AcDbLine
 10
-22.5
 20
27.9209490869
 30
0.0
 11
-22.5
 21
27.910345761
 31
0.0
  0
ARC
  5
22E
330
1C2
100
AcDbEntity
  8
0
  6
Continuous
 62
     7
370
    25
100
AcDbCircle
 10
-32.3
 20
0.2
 30
0.0
 40
0.199999999999992
100
AcDbArc
 50
180.0
 51
270.0
  0
ARC
  5
22F
330
1C2
100
AcDbEntity
  8
0
  6
Continuous
 62
     7
370
    25
100
AcDbCircle
 10
32.3
 20
0.2
 30
0.0
 40
0.199999999999992
100
AcDbArc
 50
270.0
 51
0.0
  0
ARC
  5
230
330
1C2
100
AcDbEntity
  8
0
  6
Continuous
 62
     7
370
    25
100
AcDbCircle
 10
32.30516113
 20
18.1723962455
 30
0.0
 40
0.1949150804173641
100
AcDbArc
 50
1.6022720993
 51
91.5173045251
  0
ARC
  5
231
330
1C2
100
AcDbEntity
  8
0
  6
Continuous
 62
     7
370
    25
100
AcDbCircle
 10
-32.30516113
 20
18.1723962455
 30
0.0
 40
0.1949150804173677
100
AcDbArc
 50
88.4826954749
 51
178.3977279007
  0
ARC
  5
232
330
1C2
100
AcDbEntity
  8
0
  6
Continuous
 62
     7
370
    25
100
AcDbCircle
 10
-28.49483887
 20
18.1723962455
 30
0.0
 40
0.1949150804173677
100
AcDbArc
 50
1.6022720993
 51
91.5173045251
  0
ARC
  5
233
330
1C2
100
AcDbEntity
  8
0
  6
Continuous
 62
     7
370
    25
100
AcDbCircle
 10
28.49483887
 20
18.1723962455
 30
0.0
 40
0.1949150804173715
100
AcDbArc
 50
88.4826954749
 51
178.3977279007
  0
ARC
  5
234
330
1C2
100
AcDbEntity
  8
0
  6
Continuous
 62
     7
370
    25
100
AcDbCircle
 10
28.49483887
 20
23.9835323624
 30
0.0
 40
0.194915080417378
100
AcDbArc
 50
88.4826954749
 51
178.3977279007
  0
ARC
  5
235
330
1C2
100
AcDbEntity
  8
0
  6
Continuous
 62
     7
370
    25
100
AcDbCircle
 10
-32.30516113
 20
24.3906559981
 30
0.0
 40
0.1949150804173748
100
AcDbArc
 50
88.4826954749
 51
178.3977279007
  0
ARC
  5
236
330
1C2
100
AcDbEntity
  8
0
  6
Continuous
 62
     7
370
    25
100
AcDbCircle
 10
-28.49483887
 20
23.9835323624
 30
0.0
 40
0.194915080417378
100
AcDbArc
 50
1.6022720993
 51
91.5173045251
  0
ARC
  5
237
330
1C2
100
AcDbEntity
  8
0
  6
Continuous
 62
     7
370
    25
100
AcDbCircle
 10
32.30516113
 20
24.3906559981
 30
0.0
 40
0.1949150804173813
100
AcDbArc
 50
1.6022720993
 51
91.5173045251
  0
VIEWPORT
  5
34B
330
1C2
100
AcDbEntity
  8
0
100
AcDbViewport
 10
0.0
 20
0.0
 30
0.0
 40
205.6
 41
156.0
 68
     1
 69
     1
 12
0.0
 22
0.0
 13
0.0
 23
0.0
 14
10.0
 24
10.0
 15
10.0
 25
10.0
 16
0.0
 26
0.0
 36
1.0
 17
0.0
 27
0.0
 37
0.0
 42
50.0
 43
0.0
 44
0.0
 45
57.12
 50
0.0
 51
0.0
 72
   100
 90
   557152
  1

281
     0
 71
     1
 74
     0
110
0.0
120
0.0
130
0.0
111
1.0
121
0.0
131
0.0
112
0.0
122
1.0
132
0.0
 79
     0
146
0.0
  0
ENDBLK
  5
1C5
330
1C2
100
AcDbEntity
  8
0
100
AcDbBlockEnd
  0
ENDSEC
  0
SECTION
  2
ENTITIES
  0
LWPOLYLINE
  5
76
330
1F
100
AcDbEntity
  8
0
  6
Continuous
 62
     7
370
    25
100
AcDbPolyline
 90
        9
 70
   128
 43
0.0
 10
32.5
 20
-18.0
 10
32.4961570561
 20
-17.9874641693
 10
32.4847759065
 20
-17.9754100835
 10
32.4662939225
 20
-17.9643009744
 10
32.4414213562
 20
-17.9545637589
 10
32.4111140466
 20
-17.9465726326
 10
32.3765366865
 20
-17.9406346901
 10
32.3390180644
 20
-17.9369781232
 10
32.3
 20
-17.9357434516
  0
LWPOLYLINE
  5
7B
330
1F
100
AcDbEntity
  8
0
  6
Continuous
 62
     7
370
    25
100
AcDbPolyline
 90
        9
 70
   128
 43
0.0
 10
-32.5
 20
-18.0
 10
-32.4961570561
 20
-17.9874641693
 10
-32.4847759065
 20
-17.9754100835
 10
-32.4662939225
 20
-17.9643009744
 10
-32.4414213562
 20
-17.9545637589
 10
-32.4111140466
 20
-17.9465726326
 10
-32.3765366865
 20
-17.9406346901
 10
-32.3390180644
 20
-17.9369781232
 10
-32.3
 20
-17.9357434516
  0
LWPOLYLINE
  5
88
330
1F
100
AcDbEntity
  8
0
  6
Continuous
 62
     7
370
    25
100
AcDbPolyline
 90
        9
 70
   128
 43
0.0
 10
-28.3
 20
-16.8
 10
-28.3038429439
 20
-16.7874641693
 10
-28.3152240935
 20
-16.7754100835
 10
-28.3337060775
 20
-16.7643009744
 10
-28.3585786438
 20
-16.7545637589
 10
-28.3888859534
 20
-16.7465726326
 10
-28.4234633135
 20
-16.7406346901
 10
-28.4609819356
 20
-16.7369781232
 10
-28.5
 20
-16.7357434516
  0
LWPOLYLINE
  5
8C
330
1F
100
AcDbEntity
  8
0
  6
Continuous
 62
     7
370
    25
100
AcDbPolyline
 90
        9
 70
   128
 43
0.0
 10
28.3
 20
-16.8
 10
28.3038429439
 20
-16.7874641693
 10
28.3152240935
 20
-16.7754100835
 10
28.3337060775
 20
-16.7643009744
 10
28.3585786438
 20
-16.7545637589
 10
28.3888859534
 20
-16.7465726326
 10
28.4234633135
 20
-16.7406346901
 10
28.4609819356
 20
-16.7369781232
 10
28.5
 20
-16.7357434516
  0
LWPOLYLINE
  5
8E
330
1F
100
AcDbEntity
  8
0
  6
Continuous
 62
     7
370
    25
100
AcDbPolyline
 90
        9
 70
   128
 43
0.0
 10
-32.3
 20
0.3926242689
 10
-32.3390180644
 20
0.3913895974
 10
-32.3765366865
 20
0.3877330304
 10
-32.4111140466
 20
0.3817950879
 10
-32.4414213562
 20
0.3738039616
 10
-32.4662939225
 20
0.3640667461
 10
-32.4847759065
 20
0.352957637
 10
-32.4961570561
 20
0.3409035513
 10
-32.5
 20
0.3283677205
  0
LWPOLYLINE
  5
90
330
1F
100
AcDbEntity
  8
0
  6
Continuous
 62
     7
370
    25
100
AcDbPolyline
 90
        9
 70
   128
 43
0.0
 10
32.5
 20
0.3283677205
 10
32.4961570561
 20
0.3409035513
 10
32.4847759065
 20
0.352957637
 10
32.4662939225
 20
0.3640667461
 10
32.4414213562
 20
0.3738039616
 10
32.4111140466
 20
0.3817950879
 10
32.3765366865
 20
0.3877330304
 10
32.3390180644
 20
0.3913895974
 10
32.3
 20
0.3926242689
  0
LWPOLYLINE
  5
92
330
1F
100
AcDbEntity
  8
0
  6
Continuous
 62
     7
370
    25
100
AcDbPolyline
 90
        9
 70
   128
 43
0.0
 10
28.5
 20
0.3926242689
 10
28.4609819356
 20
0.3913895974
 10
28.4234633135
 20
0.3877330304
 10
28.3888859534
 20
0.3817950879
 10
28.3585786438
 20
0.3738039616
 10
28.3337060775
 20
0.3640667461
 10
28.3152240935
 20
0.352957637
 10
28.3038429439
 20
0.3409035513
 10
28.3
 20
0.3283677205
  0
LWPOLYLINE
  5
94
330
1F
100
AcDbEntity
  8
0
  6
Continuous
 62
     7
370
    25
100
AcDbPolyline
 90
        9
 70
   128
 43
0.0
 10
-28.3
 20
0.3283677205
 10
-28.3038429439
 20
0.3409035513
 10
-28.3152240935
 20
0.352957637
 10
-28.3337060775
 20
0.3640667461
 10
-28.3585786438
 20
0.3738039616
 10
-28.3888859534
 20
0.3817950879
 10
-28.4234633135
 20
0.3877330304
 10
-28.4609819356
 20
0.3913895974
 10
-28.5
 20
0.3926242689
  0
SPLINE
  5
96
330
1F
100
AcDbEntity
  8
0
  6
Continuous
 62
     7
370
    25
100
AcDbSpline
210
0.0
220
0.0
230
1.0
 70
     8
 71
     3
 72
    27
 73
    23
 74
     0
 42
0.000000001
 43
0.00000001
 40
0.0
 40
0.0
 40
0.0
 40
0.0
 40
0.1250000000000002
 40
0.1250000000000002
 40
0.1875000000000003
 40
0.1875000000000003
 40
0.2500000000000004
 40
0.2500000000000004
 40
0.3750000000000002
 40
0.3750000000000002
 40
0.5000000000000004
 40
0.5000000000000004
 40
0.6250000000000007
 40
0.6250000000000007
 40
0.6875000000000006
 40
0.6875000000000006
 40
0.7500000000000004
 40
0.8125000000000003
 40
0.8125000000000003
 40
0.8750000000000002
 40
0.8750000000000002
 40
1.0
 40
1.0
 40
1.0
 40
1.0
 10
-28.5
 20
12.0122966456185
 30
0.0
 10
-28.50000000000001
 20
12.48600432830427
 30
0.0
 10
-28.45329271936379
 20
12.95209194135318
 30
0.0
 10
-28.31579412156866
 20
13.64019754497082
 30
0.0
 10
-28.25863874662156
 20
13.86771449342325
 30
0.0
 10
-28.12112661784634
 20
14.3189449660299
 30
0.0
 10
-28.04045278571153
 20
14.54304398497543
 30
0.0
 10
-27.76879254948983
 20
15.19461094751785
 30
0.0
 10
-27.54715546880841
 20
15.60661825136817
 30
0.0
 10
-27.02349369083689
 20
16.38631430334035
 30
0.0
 10
-26.71925753352269
 20
16.7546795632376
 30
0.0
 10
-26.05521335426169
 20
17.41474722668174
 30
0.0
 10
-25.69287142841186
 20
17.71102826083115
 30
0.0
 10
-25.10259810778723
 20
18.10357400735914
 30
0.0
 10
-24.89887824629131
 20
18.22496972172311
 30
0.0
 10
-24.48440073566899
 20
18.44532442229112
 30
0.0
 10
-24.06100287865672
 20
18.64452823807497
 30
0.0
 10
-23.61996831047101
 20
18.80198315517992
 30
0.0
 10
-23.16996312887083
 20
18.93823220882848
 30
0.0
 10
-22.93936759049206
 20
18.9959369554964
 30
0.0
 10
-22.24365830553538
 20
19.1339930432424
 30
0.0
 10
-21.77452309224605
 20
19.18024360530695
 30
0.0
 10
-21.3
 20
19.18024360530694
 30
0.0
  0
SPLINE
  5
99
330
1F
100
AcDbEntity
  8
0
  6
Continuous
 62
     7
370
    25
100
AcDbSpline
210
0.0
220
0.0
230
1.0
 70
     8
 71
     3
 72
    30
 73
    26
 74
     0
 42
0.000000001
 43
0.00000001
 40
0.0
 40
0.0
 40
0.0
 40
0.0
 40
0.1249999999999997
 40
0.1249999999999997
 40
0.1874999999999998
 40
0.1874999999999998
 40
0.2499999999999998
 40
0.2499999999999998
 40
0.3124999999999999
 40
0.3124999999999999
 40
0.375
 40
0.375
 40
0.5
 40
0.5
 40
0.5625
 40
0.5625
 40
0.6250000000000001
 40
0.6250000000000001
 40
0.7500000000000004
 40
0.7500000000000004
 40
0.8125000000000003
 40
0.8125000000000003
 40
0.8750000000000003
 40
0.8750000000000003
 40
1.0
 40
1.0
 40
1.0
 40
1.0
 10
-20.5
 20
27.74195802937929
 30
0.0
 10
-21.28253900757367
 20
27.74195802937929
 30
0.0
 10
-22.0554222318959
 20
27.66522224181029
 30
0.0
 10
-23.2005487497992
 20
27.43673798666202
 30
0.0
 10
-23.57976452182006
 20
27.34130445470089
 30
0.0
 10
-24.31856651760778
 20
27.11649405103569
 30
0.0
 10
-24.68011319677399
 20
26.98678457163199
 30
0.0
 10
-25.38795322327964
 20
26.69350036335435
 30
0.0
 10
-25.73424596302002
 20
26.52992465640283
 30
0.0
 10
-26.41158953976707
 20
26.16861858954518
 30
0.0
 10
-26.74400101228042
 20
25.96996427125356
 30
0.0
 10
-27.70815606391605
 20
25.3272364878602
 30
0.0
 10
-28.29884310728427
 20
24.8432776575115
 30
0.0
 10
-29.11037869057334
 20
24.03612763105164
 30
0.0
 10
-29.36837692239088
 20
23.75343802995234
 30
0.0
 10
-29.85877339308491
 20
23.15983389994859
 30
0.0
 10
-30.09048452350983
 20
22.84936621244754
 30
0.0
 10
-30.73249893233547
 20
21.89496054485834
 30
0.0
 10
-31.09549570220042
 20
21.2221293392206
 30
0.0
 10
-31.54141235258814
 20
20.15638560593252
 30
0.0
 10
-31.6740675624672
 20
19.78950797404401
 30
0.0
 10
-31.90068220473918
 20
19.04929620552577
 30
0.0
 10
-31.99503626231946
 20
18.6756983942684
 30
0.0
 10
-32.22230598246588
 20
17.54455890369945
 30
0.0
 10
-32.30000000000002
 20
16.77676862537504
 30
0.0
 10
-32.3
 20
15.99448940100101
 30
0.0
  0
SPLINE
  5
9B
330
1F
100
AcDbEntity
  8
0
  6
Continuous
 62
     7
370
    25
100
AcDbSpline
210
0.0
220
0.0
230
1.0
 70
     8
 71
     3
 72
    28
 73
    24
 74
     0
 42
0.000000001
 43
0.00000001
 40
0.0
 40
0.0
 40
0.0
 40
0.0
 40
0.1249999999999998
 40
0.1249999999999998
 40
0.1874999999999996
 40
0.1874999999999996
 40
0.2499999999999993
 40
0.2499999999999993
 40
0.3749999999999997
 40
0.3749999999999997
 40
0.5
 40
0.5
 40
0.5625000000000002
 40
0.5625000000000002
 40
0.6250000000000004
 40
0.6250000000000004
 40
0.7500000000000003
 40
0.7500000000000003
 40
0.8125000000000002
 40
0.8125000000000002
 40
0.8750000000000001
 40
0.8750000000000001
 40
1.0
 40
1.0
 40
1.0
 40
1.0
 10
32.3
 20
15.99448940100101
 30
0.0
 10
32.3
 20
16.77667643724754
 30
0.0
 10
32.2223080976017
 20
17.54826940968775
 30
0.0
 10
31.99174083322421
 20
18.690199233318
 30
0.0
 10
31.89529182272888
 20
19.06902176264046
 30
0.0
 10
31.66812929414526
 20
19.80667755672526
 30
0.0
 10
31.53713717849028
 20
20.16738153932301
 30
0.0
 10
31.09325114134561
 20
21.2259086100177
 30
0.0
 10
30.7287478307556
 20
21.90217133294544
 30
0.0
 10
29.86459841416355
 20
23.18349960506599
 30
0.0
 10
29.37710542198596
 20
23.77135459136377
 30
0.0
 10
28.56526282406629
 20
24.57803868823395
 30
0.0
 10
28.28110945756518
 20
24.8343179616514
 30
0.0
 10
27.68486761473266
 20
25.3211521221859
 30
0.0
 10
27.37266832096276
 20
25.55145296826519
 30
0.0
 10
26.41350877235912
 20
26.18909847973432
 30
0.0
 10
25.73796420978378
 20
26.54913552142375
 30
0.0
 10
24.66907099132829
 20
26.99102492548842
 30
0.0
 10
24.30129498596143
 20
27.12241190495756
 30
0.0
 10
23.5590354727246
 20
27.3469150087551
 30
0.0
 10
23.18455212961294
 20
27.44033136206267
 30
0.0
 10
22.05119315773629
 20
27.66524327164577
 30
0.0
 10
21.28250127518509
 20
27.7419580293793
 30
0.0
 10
20.5
 20
27.74195802937929
 30
0.0
  0
SPLINE
  5
9E
330
1F
100
AcDbEntity
  8
0
  6
Continuous
 62
     7
370
    25
100
AcDbSpline
210
0.0
220
0.0
230
1.0
 70
     8
 71
     3
 72
    27
 73
    23
 74
     0
 42
0.000000001
 43
0.00000001
 40
0.0
 40
0.0
 40
0.0
 40
0.0
 40
0.1249999999999997
 40
0.1249999999999997
 40
0.1874999999999999
 40
0.1874999999999999
 40
0.2500000000000002
 40
0.2500000000000002
 40
0.3750000000000001
 40
0.3750000000000001
 40
0.5
 40
0.5
 40
0.6249999999999999
 40
0.6249999999999999
 40
0.6874999999999997
 40
0.6874999999999997
 40
0.7499999999999993
 40
0.8124999999999996
 40
0.8124999999999996
 40
0.8749999999999998
 40
0.8749999999999998
 40
1.0
 40
1.0
 40
1.0
 40
1.0
 10
21.3
 20
19.18024360530695
 30
0.0
 10
21.77454975885702
 20
19.18024360530695
 30
0.0
 10
22.24120249914764
 20
19.13399366436663
 30
0.0
 10
22.92982823262227
 20
18.99806762919504
 30
0.0
 10
23.15746408497459
 20
18.94158493364231
 30
0.0
 10
23.60884087521802
 20
18.80576184851648
 30
0.0
 10
23.83318763508036
 20
18.72604191820285
 30
0.0
 10
24.48595224673135
 20
18.45738163097628
 30
0.0
 10
24.8989390849934
 20
18.23811912091309
 30
0.0
 10
25.68097624054731
 20
17.71981058691502
 30
0.0
 10
26.05144674451745
 20
17.41804145154761
 30
0.0
 10
26.7161150380531
 20
16.75824841630228
 30
0.0
 10
27.01469896900753
 20
16.39797376320344
 30
0.0
 10
27.41059634336736
 20
15.81063595593732
 30
0.0
 10
27.53358339047131
 20
15.607049177555
 30
0.0
 10
27.75654502703534
 20
15.19317229623252
 30
0.0
 10
27.95805960211282
 20
14.77039640101337
 30
0.0
 10
28.11728671352224
 20
14.3300751447707
 30
0.0
 10
28.25505933033114
 20
13.88085266819675
 30
0.0
 10
28.31341397417345
 20
13.65071691942197
 30
0.0
 10
28.45328235735557
 20
12.9548575149527
 30
0.0
 10
28.50000000000001
 20
12.48603499674198
 30
0.0
 10
28.5
 20
12.01229664561851
 30
0.0
  0
SPLINE
  5
A0
330
1F
100
AcDbEntity
  8
0
  6
Continuous
 62
     7
370
    25
100
AcDbSpline
210
0.0
220
0.0
230
1.0
 70
     8
 71
     3
 72
    30
 73
    26
 74
     0
 42
0.000000001
 43
0.00000001
 40
0.0
 40
0.0
 40
0.0
 40
0.0
 40
0.1249999999999999
 40
0.1249999999999999
 40
0.1874999999999999
 40
0.1874999999999999
 40
0.25
 40
0.25
 40
0.3750000000000001
 40
0.3750000000000001
 40
0.4375000000000001
 40
0.4375000000000001
 40
0.5
 40
0.5
 40
0.6250000000000003
 40
0.6250000000000003
 40
0.6875000000000002
 40
0.6875000000000002
 40
0.7500000000000002
 40
0.7500000000000002
 40
0.8125000000000001
 40
0.8125000000000001
 40
0.8750000000000001
 40
0.8750000000000001
 40
1.0
 40
1.0
 40
1.0
 40
1.0
 10
-32.5
 20
16.00000000000002
 30
0.0
 10
-32.5
 20
16.79711416267738
 30
0.0
 10
-32.42137553294383
 20
17.57966575332436
 30
0.0
 10
-32.19125117195554
 20
18.73281551822883
 30
0.0
 10
-32.09570156929424
 20
19.1137281192512
 30
0.0
 10
-31.8661841419659
 20
19.86852113031214
 30
0.0
 10
-31.73179165611357
 20
20.24275253397495
 30
0.0
 10
-31.27984864115888
 20
21.33021901588277
 30
0.0
 10
-30.91177254026308
 20
22.01713581888361
 30
0.0
 10
-30.26038726611576
 20
22.99196489827522
 30
0.0
 10
-30.02526079560527
 20
23.30913566721217
 30
0.0
 10
-29.52727137801842
 20
23.91596038984641
 30
0.0
 10
-29.26520659803785
 20
24.20502416348563
 30
0.0
 10
-28.44065045779064
 20
25.03056715970071
 30
0.0
 10
-27.84019807057023
 20
25.52582370056173
 30
0.0
 10
-26.85957920769582
 20
26.18384546835772
 30
0.0
 10
-26.52125428816647
 20
26.38737540053599
 30
0.0
 10
-25.83185507703229
 20
26.75752724151553
 30
0.0
 10
-25.47934003434316
 20
26.92513620681121
 30
0.0
 10
-24.758661464016
 20
27.22569511655713
 30
0.0
 10
-24.39049860305036
 20
27.35864617044177
 30
0.0
 10
-23.63805216688653
 20
27.58910914624273
 30
0.0
 10
-23.25175706528404
 20
27.68696654390966
 30
0.0
 10
-22.08501866859496
 20
27.92128900746145
 30
0.0
 10
-21.29746985468707
 20
28.00000000000001
 30
0.0
 10
-20.5
 20
28.00000000000002
 30
0.0
  0
SPLINE
  5
A3
330
1F
100
AcDbEntity
  8
0
  6
Continuous
 62
     7
370
    25
100
AcDbSpline
210
0.0
220
0.0
230
1.0
 70
     8
 71
     3
 72
    28
 73
    24
 74
     0
 42
0.000000001
 43
0.00000001
 40
0.0
 40
0.0
 40
0.0
 40
0.0
 40
0.1250000000000006
 40
0.1250000000000006
 40
0.1875000000000008
 40
0.1875000000000008
 40
0.2500000000000011
 40
0.2500000000000011
 40
0.3750000000000013
 40
0.3750000000000013
 40
0.4375000000000014
 40
0.4375000000000014
 40
0.5000000000000014
 40
0.5000000000000014
 40
0.625000000000001
 40
0.625000000000001
 40
0.7500000000000006
 40
0.7500000000000006
 40
0.8125000000000003
 40
0.8125000000000003
 40
0.8750000000000001
 40
0.8750000000000001
 40
1.0
 40
1.0
 40
1.0
 40
1.0
 10
20.5
 20
28.00000000000002
 30
0.0
 10
21.29743737423006
 20
28.00000000000002
 30
0.0
 10
22.080685356146
 20
27.92130979646958
 30
0.0
 10
23.23534708803295
 20
27.69067682696874
 30
0.0
 10
23.61684198302304
 20
27.59488959496447
 30
0.0
 10
24.37294311366808
 20
27.36470326514693
 30
0.0
 10
24.7474667894555
 20
27.23002223845481
 30
0.0
 10
25.83572013527934
 20
26.77717890047491
 30
0.0
 10
26.52322580988975
 20
26.40833362572757
 30
0.0
 10
27.49899252360398
 20
25.75537124664557
 30
0.0
 10
27.81653187302769
 20
25.51957110354645
 30
0.0
 10
28.42261533599069
 20
25.02142111213257
 30
0.0
 10
28.71138101231159
 20
24.75924883350703
 30
0.0
 10
29.53619359262396
 20
23.93423458080258
 30
0.0
 10
30.03118374201209
 20
23.33329528132391
 30
0.0
 10
30.90814310338218
 20
22.02422114024717
 30
0.0
 10
31.27757930257116
 20
21.33406229332184
 30
0.0
 10
31.72745801594674
 20
20.25397408821627
 30
0.0
 10
31.86018072311768
 20
19.88600459345684
 30
0.0
 10
32.09029001753886
 20
19.13367437229873
 30
0.0
 10
32.18794927017968
 20
18.74744385614816
 30
0.0
 10
32.42137669953232
 20
17.58341438914963
 30
0.0
 10
32.50000000000001
 20
16.79702930918778
 30
0.0
 10
32.50000000000001
 20
16.00000000000002
 30
0.0
  0
SPLINE
  5
AC
330
1F
100
AcDbEntity
  8
0
  6
Continuous
 62
     7
370
    25
100
AcDbSpline
210
0.0
220
0.0
230
1.0
 70
     8
 71
     3
 72
    27
 73
    23
 74
     0
 42
0.000000001
 43
0.00000001
 40
0.0
 40
0.0
 40
0.0
 40
0.0
 40
0.1250000000000001
 40
0.1250000000000001
 40
0.1875
 40
0.1875
 40
0.2499999999999999
 40
0.3124999999999999
 40
0.3124999999999999
 40
0.3749999999999999
 40
0.3749999999999999
 40
0.5000000000000002
 40
0.5000000000000002
 40
0.6250000000000007
 40
0.6250000000000007
 40
0.750000000000001
 40
0.750000000000001
 40
0.8125000000000008
 40
0.8125000000000008
 40
0.8750000000000007
 40
0.8750000000000007
 40
1.0
 40
1.0
 40
1.0
 40
1.0
 10
28.3
 20
11.99999999999998
 30
0.0
 10
28.3
 20
12.46154605043451
 30
0.0
 10
28.25479225885239
 20
12.91837851670163
 30
0.0
 10
28.11939653582171
 20
13.59654924858454
 30
0.0
 10
28.06289488974973
 20
13.82089748418485
 30
0.0
 10
27.9294600741939
 20
14.25890992790388
 30
0.0
 10
27.77521729850863
 20
14.68832808153313
 30
0.0
 10
27.57993101314279
 20
15.10079327504435
 30
0.0
 10
27.36381489650841
 20
15.5046542433278
 30
0.0
 10
27.2445918012939
 20
15.70334583316643
 30
0.0
 10
26.86054911375456
 20
16.27692199247198
 30
0.0
 10
26.5707636367424
 20
16.62895392976262
 30
0.0
 10
25.92530592472636
 20
17.27396519717015
 30
0.0
 10
25.56532319639906
 20
17.56919813825685
 30
0.0
 10
24.80483529349757
 20
18.07660097738508
 30
0.0
 10
24.40305249087519
 20
18.29136608984618
 30
0.0
 10
23.76768269110523
 20
18.55462414219289
 30
0.0
 10
23.54923769927639
 20
18.63277300690313
 30
0.0
 10
23.10962712891864
 20
18.76594395803205
 30
0.0
 10
22.88790400352464
 20
18.82132922494138
 30
0.0
 10
22.21710159164163
 20
18.95462513356438
 30
0.0
 10
21.76244405337451
 20
18.99999999999998
 30
0.0
 10
21.3
 20
18.99999999999998
 30
0.0
  0
SPLINE
  5
AF
330
1F
100
AcDbEntity
  8
0
  6
Continuous
 62
     7
370
    25
100
AcDbSpline
210
0.0
220
0.0
230
1.0
 70
     8
 71
     3
 72
    27
 73
    23
 74
     0
 42
0.000000001
 43
0.00000001
 40
0.0
 40
0.0
 40
0.0
 40
0.0
 40
0.1249999999999997
 40
0.1249999999999997
 40
0.1874999999999995
 40
0.1874999999999995
 40
0.2499999999999993
 40
0.3124999999999992
 40
0.3124999999999992
 40
0.374999999999999
 40
0.374999999999999
 40
0.4999999999999992
 40
0.4999999999999992
 40
0.6249999999999994
 40
0.6249999999999994
 40
0.7499999999999997
 40
0.7499999999999997
 40
0.8124999999999997
 40
0.8124999999999997
 40
0.8749999999999998
 40
0.8749999999999998
 40
1.0
 40
1.0
 40
1.0
 40
1.0
 10
-21.3
 20
18.99999999999998
 30
0.0
 10
-21.76241205037603
 20
18.99999999999998
 30
0.0
 10
-22.21951163718969
 20
18.95462536151586
 30
0.0
 10
-22.89728404980363
 20
18.81922008419837
 30
0.0
 10
-23.12188687356662
 20
18.76263211654975
 30
0.0
 10
-23.56008652809211
 20
18.62906281531567
 30
0.0
 10
-23.98946203994891
 20
18.47473439469638
 30
0.0
 10
-24.40150381185378
 20
18.27956845234751
 30
0.0
 10
-24.80478520985082
 20
18.06372711090074
 30
0.0
 10
-25.00298769109161
 20
17.94481933077947
 30
0.0
 10
-25.57686610636405
 20
17.5606110430578
 30
0.0
 10
-25.92893817083779
 20
17.27077085541545
 30
0.0
 10
-26.57384984139207
 20
16.62542990976893
 30
0.0
 10
-26.86910737172963
 20
16.26548960432133
 30
0.0
 10
-27.37697804210674
 20
15.50423976893406
 30
0.0
 10
-27.59181838802271
 20
15.10215305061311
 30
0.0
 10
-27.85504332796409
 20
14.46657455043138
 30
0.0
 10
-27.9331828234133
 20
14.24804247335154
 30
0.0
 10
-28.06634344835097
 20
13.80814979185234
 30
0.0
 10
-28.12168364971036
 20
13.58637302602739
 30
0.0
 10
-28.25480298693807
 20
12.91569874446205
 30
0.0
 10
-28.3
 20
12.46151069765538
 30
0.0
 10
-28.3
 20
11.99999999999998
 30
0.0
  0
LINE
  5
B1
330
1F
100
AcDbEntity
  8
0
  6
Continuous
 62
     7
370
    25
100
AcDbLine
 10
22.5
 20
-28.0
 30
0.0
 11
22.5
 21
-27.7357434516
 31
0.0
  0
LINE
  5
B2
330
1F
100
AcDbEntity
  8
0
  6
Continuous
 62
     7
370
    25
100
AcDbLine
 10
22.5
 20
-28.0
 30
0.0
 11
-22.5
 21
-28.0
 31
0.0
  0
LINE
  5
B3
330
1F
100
AcDbEntity
  8
0
  6
Continuous
 62
     7
370
    25
100
AcDbLine
 10
-22.5
 20
-28.0
 30
0.0
 11
-22.5
 21
-27.7357434516
 31
0.0
  0
LINE
  5
B4
330
1F
100
AcDbEntity
  8
0
  6
Continuous
 62
     7
370
    25
100
AcDbLine
 10
-22.5
 20
-27.7357434516
 30
0.0
 11
22.5
 21
-27.7357434516
 31
0.0
  0
LINE
  5
B5
330
1F
100
AcDbEntity
  8
0
  6
Continuous
 62
     7
370
    25
100
AcDbLine
 10
32.3
 20
-17.9357434516
 30
0.0
 11
32.3
 21
15.994489401
 31
0.0
  0
LINE
  5
B6
330
1F
100
AcDbEntity
  8
0
  6
Continuous
 62
     7
370
    25
100
AcDbLine
 10
-32.3
 20
15.994489401
 30
0.0
 11
-32.3
 21
-17.9357434516
 31
0.0
  0
LINE
  5
B7
330
1F
100
AcDbEntity
  8
0
  6
Continuous
 62
     7
370
    25
100
AcDbLine
 10
-32.3
 20
0.3926242689
 30
0.0
 11
-28.5
 21
0.3926242689
 31
0.0
  0
LINE
  5
B8
330
1F
100
AcDbEntity
  8
0
  6
Continuous
 62
     7
370
    25
100
AcDbLine
 10
-28.5
 20
-16.7357434516
 30
0.0
 11
-28.5
 21
12.0122966456
 31
0.0
  0
LINE
  5
B9
330
1F
100
AcDbEntity
  8
0
  6
Continuous
 62
     7
370
    25
100
AcDbLine
 10
21.3
 20
-23.9357434516
 30
0.0
 11
-21.3
 21
-23.9357434516
 31
0.0
  0
LINE
  5
BA
330
1F
100
AcDbEntity
  8
0
  6
Continuous
 62
     7
370
    25
100
AcDbLine
 10
28.5
 20
12.0122966456
 30
0.0
 11
28.5
 21
-16.7357434516
 31
0.0
  0
LINE
  5
BB
330
1F
100
AcDbEntity
  8
0
  6
Continuous
 62
     7
370
    25
100
AcDbLine
 10
28.5
 20
0.3926242689
 30
0.0
 11
32.3
 21
0.3926242689
 31
0.0
  0
LINE
  5
BC
330
1F
100
AcDbEntity
  8
0
  6
Continuous
 62
     7
370
    25
100
AcDbLine
 10
-21.3
 20
-23.8
 30
0.0
 11
-21.3
 21
-23.9357434516
 31
0.0
  0
LINE
  5
BD
330
1F
100
AcDbEntity
  8
0
  6
Continuous
 62
     7
370
    25
100
AcDbLine
 10
-21.3
 20
-23.8
 30
0.0
 11
21.3
 21
-23.8
 31
0.0
  0
LINE
  5
BE
330
1F
100
AcDbEntity
  8
0
  6
Continuous
 62
     7
370
    25
100
AcDbLine
 10
21.3
 20
-23.8
 30
0.0
 11
21.3
 21
-23.9357434516
 31
0.0
  0
LINE
  5
BF
330
1F
100
AcDbEntity
  8
0
  6
Continuous
 62
     7
370
    25
100
AcDbLine
 10
-32.5
 20
-18.0
 30
0.0
 11
-32.5
 21
16.0
 31
0.0
  0
LINE
  5
C0
330
1F
100
AcDbEntity
  8
0
  6
Continuous
 62
     7
370
    25
100
AcDbLine
 10
32.5
 20
16.0
 30
0.0
 11
32.5
 21
-18.0
 31
0.0
  0
LINE
  5
C1
330
1F
100
AcDbEntity
  8
0
  6
Continuous
 62
     7
370
    25
100
AcDbLine
 10
28.3
 20
-16.8
 30
0.0
 11
28.3
 21
12.0
 31
0.0
  0
LINE
  5
C2
330
1F
100
AcDbEntity
  8
0
  6
Continuous
 62
     7
370
    25
100
AcDbLine
 10
-28.3
 20
12.0
 30
0.0
 11
-28.3
 21
-16.8
 31
0.0
  0
LINE
  5
C3
330
1F
100
AcDbEntity
  8
0
  6
Continuous
 62
     7
370
    25
100
AcDbLine
 10
-21.3
 20
19.1802436053
 30
0.0
 11
21.3
 21
19.1802436053
 31
0.0
  0
LINE
  5
C4
330
1F
100
AcDbEntity
  8
0
  6
Continuous
 62
     7
370
    25
100
AcDbLine
 10
20.5
 20
27.7419580294
 30
0.0
 11
-20.5
 21
27.7419580294
 31
0.0
  0
LINE
  5
C5
330
1F
100
AcDbEntity
  8
0
  6
Continuous
 62
     7
370
    25
100
AcDbLine
 10
-20.5
 20
27.7419580294
 30
0.0
 11
-20.5
 21
28.0
 31
0.0
  0
LINE
  5
C6
330
1F
100
AcDbEntity
  8
0
  6
Continuous
 62
     7
370
    25
100
AcDbLine
 10
20.5
 20
27.7419580294
 30
0.0
 11
20.5
 21
28.0
 31
0.0
  0
LINE
  5
C7
330
1F
100
AcDbEntity
  8
0
  6
Continuous
 62
     7
370
    25
100
AcDbLine
 10
-20.5
 20
28.0
 30
0.0
 11
20.5
 21
28.0
 31
0.0
  0
LINE
  5
C8
330
1F
100
AcDbEntity
  8
0
  6
Continuous
 62
     7
370
    25
100
AcDbLine
 10
21.3
 20
19.1802436053
 30
0.0
 11
21.3
 21
19.0
 31
0.0
  0
LINE
  5
C9
330
1F
100
AcDbEntity
  8
0
  6
Continuous
 62
     7
370
    25
100
AcDbLine
 10
-21.3
 20
19.1802436053
 30
0.0
 11
-21.3
 21
19.0
 31
0.0
  0
LINE
  5
CA
330
1F
100
AcDbEntity
  8
0
  6
Continuous
 62
     7
370
    25
100
AcDbLine
 10
21.3
 20
19.0
 30
0.0
 11
-21.3
 21
19.0
 31
0.0
  0
ARC
  5
CB
330
1F
100
AcDbEntity
  8
0
  6
Continuous
 62
     7
370
    25
100
AcDbCircle
 10
22.5
 20
-18.0
 30
0.0
 40
10.0
100
AcDbArc
 50
270.0
 51
0.0
  0
ARC
  5
CC
330
1F
100
AcDbEntity
  8
0
  6
Continuous
 62
     7
370
    25
100
AcDbCircle
 10
22.5
 20
-17.9357434516
 30
0.0
 40
9.799999999999994
100
AcDbArc
 50
270.0
 51
0.0
  0
ARC
  5
CD
330
1F
100
AcDbEntity
  8
0
  6
Continuous
 62
     7
370
    25
100
AcDbCircle
 10
-22.5
 20
-18.0
 30
0.0
 40
9.999999999999996
100
AcDbArc
 50
180.0
 51
270.0
  0
ARC
  5
CE
330
1F
100
AcDbEntity
  8
0
  6
Continuous
 62
     7
370
    25
100
AcDbCircle
 10
-22.5
 20
-17.9357434516
 30
0.0
 40
9.800000000000008
100
AcDbArc
 50
180.0
 51
270.0
  0
ARC
  5
CF
330
1F
100
AcDbEntity
  8
0
  6
Continuous
 62
     7
370
    25
100
AcDbCircle
 10
-21.3
 20
-16.7357434516
 30
0.0
 40
7.199999999999996
100
AcDbArc
 50
180.0
 51
270.0
  0
ARC
  5
D0
330
1F
100
AcDbEntity
  8
0
  6
Continuous
 62
     7
370
    25
100
AcDbCircle
 10
21.3
 20
-16.7357434516
 30
0.0
 40
7.199999999999996
100
AcDbArc
 50
270.0
 51
0.0
  0
ARC
  5
D1
330
1F
100
AcDbEntity
  8
0
  6
Continuous
 62
     7
370
    25
100
AcDbCircle
 10
-21.3
 20
-16.8
 30
0.0
 40
6.999999999999996
100
AcDbArc
 50
180.0
 51
270.0
  0
ARC
  5
D2
330
1F
100
AcDbEntity
  8
0
  6
Continuous
 62
     7
370
    25
100
AcDbCircle
 10
21.3
 20
-16.8
 30
0.0
 40
7.000000000000004
100
AcDbArc
 50
270.0
 51
0.0
  0
ARC
  5
D3
330
1F
100
AcDbEntity
  8
0
  6
Continuous
 62
     7
370
    25
100
AcDbCircle
 10
-32.3499620416
 20
17.8133071063
 30
0.0
 40
1.819503792404925
100
AcDbArc
 50
265.2699663415
 51
271.5734916259
  0
ARC
  5
D4
330
1F
100
AcDbEntity
  8
0
  6
Continuous
 62
     7
370
    25
100
AcDbCircle
 10
32.3499620416
 20
17.8133071063
 30
0.0
 40
1.819503792405282
100
AcDbArc
 50
268.4265083741
 51
274.7300336585
  0
ARC
  5
D5
330
1F
100
AcDbEntity
  8
0
  6
Continuous
 62
     7
370
    25
100
AcDbCircle
 10
28.4501890094
 20
11.1898442522
 30
0.0
 40
0.823959388710861
100
AcDbArc
 50
86.5341729421
 51
100.5024283822
  0
ARC
  5
D6
330
1F
100
AcDbEntity
  8
0
  6
Continuous
 62
     7
370
    25
100
AcDbCircle
 10
-28.4501890094
 20
11.1898442522
 30
0.0
 40
0.8239593887107902
100
AcDbArc
 50
79.4975716178
 51
93.4658270579
  0
SPLINE
  5
23C
330
238
100
AcDbEntity
 67
     1
  8
0
  6
Continuous
 62
     7
370
    25
100
AcDbSpline
210
0.0
220
0.0
230
1.0
 70
     8
 71
     3
 72
    12
 73
     8
 74
     0
 42
0.000000001
 43
0.00000001
 40
0.0
 40
0.0
 40
0.0
 40
0.0
 40
0.0296883383955362
 40
0.2823442771759296
 40
0.5365494740172327
 40
0.7920100157214218
 40
1.0
 40
1.0
 40
1.0
 40
1.0
 10
7.752187576286835
 20
-6.795637632507804
 30
0.0
 10
7.778495672486764
 20
-6.799103636457912
 30
0.0
 10
8.028692915137439
 20
-6.832066288895509
 30
0.0
 10
8.477478616468947
 20
-6.873462202138504
 30
0.0
 10
9.093161355786311
 20
-6.91746757142693
 30
0.0
 10
9.640168531369238
 20
-6.936492185093984
 30
0.0
 10
9.968433442696366
 20
-6.933251672105827
 30
0.0
 10
10.11575405173302
 20
-6.931797376107281
 30
0.0
  0
SPLINE
  5
23D
330
238
100
AcDbEntity
 67
     1
  8
0
  6
Continuous
 62
     7
370
    25
100
AcDbSpline
210
0.0
220
0.0
230
1.0
 70
     8
 71
     3
 72
     9
 73
     5
 74
     0
 42
0.000000001
 43
0.00000001
 40
0.0
 40
0.0
 40
0.0
 40
0.0
 40
0.7460318401716696
 40
1.0
 40
1.0
 40
1.0
 40
1.0
 10
-3.847657813552359
 20
-3.047676495174199
 30
0.0
 10
-3.759448912794169
 20
-3.098679017066832
 30
0.0
 10
-3.641211464995846
 20
-3.167044090976947
 30
0.0
 10
-3.513967658656129
 20
-3.234801839079853
 30
0.0
 10
-3.481651783310478
 20
-3.252010149679666
 30
0.0
  0
SPLINE
  5
23E
330
238
100
AcDbEntity
 67
     1
  8
0
  6
Continuous
 62
     7
370
    25
100
AcDbSpline
210
0.0
220
0.0
230
1.0
 70
     8
 71
     3
 72
    10
 73
     6
 74
     0
 42
0.000000001
 43
0.00000001
 40
0.0
 40
0.0
 40
0.0
 40
0.0
 40
0.2832723482147702
 40
0.7622103748484563
 40
1.0
 40
1.0
 40
1.0
 40
1.0
 10
-0.8322550160914377
 20
2.764833849336028
 30
0.0
 10
-0.9312312634643626
 20
2.810069235162266
 30
0.0
 10
-1.197549960247329
 20
2.93178559965855
 30
0.0
 10
-1.519933916314369
 20
3.100292896707008
 30
0.0
 10
-1.737135271858403
 20
3.223328082764284
 30
0.0
 10
-1.809196435940156
 20
3.264147619585755
 30
0.0
  0
SPLINE
  5
23F
330
238
100
AcDbEntity
 67
     1
  8
0
  6
Continuous
 62
     7
370
    25
100
AcDbSpline
210
0.0
220
0.0
230
1.0
 70
     8
 71
     3
 72
    13
 73
     9
 74
     0
 42
0.000000001
 43
0.00000001
 40
0.0
 40
0.0
 40
0.0
 40
0.0
 40
0.110050668603966
 40
0.3179272883063491
 40
0.5260003689884191
 40
0.7340186116408601
 40
0.9415767154478306
 40
1.0
 40
1.0
 40
1.0
 40
1.0
 10
8.236669432192716
 20
1.29298436194177
 30
0.0
 10
8.158931746121029
 20
1.279379092168461
 30
0.0
 10
7.934353994386309
 20
1.240074591972552
 30
0.0
 10
7.532640114704314
 20
1.191967582185895
 30
0.0
 10
7.0235373728173
 20
1.15607034391834
 30
0.0
 10
6.48105098063638
 20
1.145527097103492
 30
0.0
 10
6.052620027947286
 20
1.150241911754309
 30
0.0
 10
5.799486563034284
 20
1.166223746400881
 30
0.0
 10
5.743885347695408
 20
1.169734184777725
 30
0.0
  0
SPLINE
  5
244
330
238
100
AcDbEntity
 67
     1
  8
0
  6
Continuous
 62
     7
370
    25
100
AcDbSpline
210
0.0
220
0.0
230
1.0
 70
     8
 71
     3
 72
    15
 73
    11
 74
     0
 42
0.000000001
 43
0.00000001
 40
0.0
 40
0.0
 40
0.0
 40
0.0
 40
0.0700984312468544
 40
0.2033635883174611
 40
0.3366321933897583
 40
0.4699034002884439
 40
0.6031801252134258
 40
0.7364658929890222
 40
0.8697648804005006
 40
1.0
 40
1.0
 40
1.0
 40
1.0
 10
28.54750440041657
 20
6.41059210603902
 30
0.0
 10
28.35191128875151
 20
6.312865685278098
 30
0.0
 10
27.78447324012658
 20
6.029350130851851
 30
0.0
 10
26.84765909994256
 20
5.596250442421521
 30
0.0
 10
25.73978103893172
 20
5.127618841504217
 30
0.0
 10
24.63818762760046
 20
4.70839167551896
 30
0.0
 10
23.54414557375569
 20
4.337944006178139
 30
0.0
 10
22.45934933535865
 20
4.018155805378357
 30
0.0
 10
21.39225001240682
 20
3.746898637525927
 30
0.0
 10
20.69354520420293
 20
3.608311627291225
 30
0.0
 10
20.34825439804027
 20
3.539823733797792
 30
0.0
  0
SPLINE
  5
245
330
238
100
AcDbEntity
 67
     1
  8
0
  6
Continuous
 62
     7
370
    25
100
AcDbSpline
210
0.0
220
0.0
230
1.0
 70
     8
 71
     3
 72
    13
 73
     9
 74
     0
 42
0.000000001
 43
0.00000001
 40
0.0
 40
0.0
 40
0.0
 40
0.0
 40
0.1121680128342981
 40
0.3259745658245053
 40
0.5398475206674304
 40
0.753816844759383
 40
0.956737204026419
 40
1.0
 40
1.0
 40
1.0
 40
1.0
 10
22.37039474028154
 20
-6.678864058991082
 30
0.0
 10
22.54509945760358
 20
-6.67666275236975
 30
0.0
 10
23.05281367075161
 20
-6.670265474286591
 30
0.0
 10
23.87979073876365
 20
-6.698649816871419
 30
0.0
 10
24.84407538512841
 20
-6.780735777189313
 30
0.0
 10
25.77120780579311
 20
-6.912488774005202
 30
0.0
 10
26.43274232388292
 20
-7.042986376899128
 30
0.0
 10
26.78106277558908
 20
-7.125045812096324
 30
0.0
 10
26.84227458604321
 20
-7.139466460004476
 30
0.0
  0
SPLINE
  5
246
330
238
100
AcDbEntity
 67
     1
  8
0
  6
Continuous
 62
     7
370
    25
100
AcDbSpline
210
0.0
220
0.0
230
1.0
 70
     8
 71
     3
 72
    15
 73
    11
 74
     0
 42
0.000000001
 43
0.00000001
 40
0.0
 40
0.0
 40
0.0
 40
0.0
 40
0.1276896399601461
 40
0.2614622810358356
 40
0.3941328245548908
 40
0.5252977076336185
 40
0.6546259030945223
 40
0.7839361488870487
 40
0.9142622068262563
 40
0.9999999999999999
 40
0.9999999999999999
 40
0.9999999999999999
 40
0.9999999999999999
 10
37.34637117027518
 20
14.21194447227568
 30
0.0
 10
37.27074440247912
 20
14.38502353218107
 30
0.0
 10
37.11588808663782
 20
14.73942695767844
 30
0.0
 10
36.81651600046717
 20
15.25114308232272
 30
0.0
 10
36.46766355354789
 20
15.74647706503529
 30
0.0
 10
36.0719750155908
 20
16.21048817308011
 30
0.0
 10
35.63290675692001
 20
16.64195994419261
 30
0.0
 10
35.14953052442124
 20
17.04007687412382
 30
0.0
 10
34.68853973453152
 20
17.36935566447442
 30
0.0
 10
34.37280381961174
 20
17.55075112145721
 30
0.0
 10
34.24751446449069
 20
17.62273190905002
 30
0.0
  0
SPLINE
  5
248
330
238
100
AcDbEntity
 67
     1
  8
0
  6
Continuous
 62
     7
370
    25
100
AcDbSpline
210
0.0
220
0.0
230
1.0
 70
     8
 71
     3
 72
    15
 73
    11
 74
     0
 42
0.000000001
 43
0.00000001
 40
0.0
 40
0.0
 40
0.0
 40
0.0
 40
0.00720089346905
 40
0.1730834403613376
 40
0.3382221791869427
 40
0.5022803423092627
 40
0.6649685880125199
 40
0.8255725302195587
 40
0.9861205749061609
 40
1.0
 40
1.0
 40
1.0
 40
1.0
 10
30.36252977964675
 20
8.221716028261444
 30
0.0
 10
30.36084734229548
 20
8.216530475254132
 30
0.0
 10
30.32040763211203
 20
8.09188853206481
 30
0.0
 10
30.1904953724569
 20
7.857467806167369
 30
0.0
 10
29.97008590880819
 20
7.524281347995863
 30
0.0
 10
29.69228253618072
 20
7.212159079666047
 30
0.0
 10
29.36974020220632
 20
6.922970936622688
 30
0.0
 10
28.99845713102711
 20
6.662882145967093
 30
0.0
 10
28.72209721718979
 20
6.492878316420783
 30
0.0
 10
28.55913457194689
 20
6.418302835158538
 30
0.0
 10
28.54616741814601
 20
6.412368765213486
 30
0.0
  0
SPLINE
  5
249
330
238
100
AcDbEntity
 67
     1
  8
0
  6
Continuous
 62
     7
370
    25
100
AcDbSpline
210
0.0
220
0.0
230
1.0
 70
     8
 71
     3
 72
    17
 73
    13
 74
     0
 42
0.000000001
 43
0.00000001
 40
0.0
 40
0.0
 40
0.0
 40
0.0
 40
0.0616278716200462
 40
0.1794279658183115
 40
0.2973236278258435
 40
0.4152267700966666
 40
0.5328890479829184
 40
0.6499319925540805
 40
0.7657250573679709
 40
0.8794322567331548
 40
0.9903876474494739
 40
1.0
 40
1.0
 40
1.0
 40
1.0
 10
-35.60395100137314
 20
25.95437915830017
 30
0.0
 10
-35.69679927601594
 20
25.93629316411994
 30
0.0
 10
-35.96712464359653
 20
25.88363625645377
 30
0.0
 10
-36.38452167136864
 20
25.77815902659027
 30
0.0
 10
-36.84007731572832
 20
25.6302495220221
 30
0.0
 10
-37.25001499189848
 20
25.45845912695497
 30
0.0
 10
-37.61248476069956
 20
25.2635768824942
 30
0.0
 10
-37.92392299674452
 20
25.04592539050143
 30
0.0
 10
-38.18368344326353
 20
24.80735467078086
 30
0.0
 10
-38.38122815343624
 20
24.54770540365622
 30
0.0
 10
-38.49537359989601
 20
24.35839968160882
 30
0.0
 10
-38.52663139162757
 20
24.25251267497689
 30
0.0
 10
-38.52912344220373
 20
24.24407075501815
 30
0.0
  0
SPLINE
  5
24B
330
238
100
AcDbEntity
 67
     1
  8
0
  6
Continuous
 62
     7
370
    25
100
AcDbSpline
210
0.0
220
0.0
230
1.0
 70
     8
 71
     3
 72
     9
 73
     5
 74
     0
 42
0.000000001
 43
0.00000001
 40
0.0
 40
0.0
 40
0.0
 40
0.0
 40
0.4570949599424298
 40
1.0
 40
1.0
 40
1.0
 40
1.0
 10
26.84227458604322
 20
-7.139466460004469
 30
0.0
 10
26.89447277499216
 20
-7.152722115064923
 30
0.0
 10
27.0086682781662
 20
-7.181721898965678
 30
0.0
 10
27.11195659627242
 20
-7.230843864397648
 30
0.0
 10
27.16803234475134
 20
-7.257512427008193
 30
0.0
  0
SPLINE
  5
24C
330
238
100
AcDbEntity
 67
     1
  8
0
  6
Continuous
 62
     7
370
    25
100
AcDbSpline
210
0.0
220
0.0
230
1.0
 70
     8
 71
     3
 72
    17
 73
    13
 74
     0
 42
0.000000001
 43
0.00000001
 40
0.0
 40
0.0
 40
0.0
 40
0.0
 40
0.0557825319508713
 40
0.1614405165761671
 40
0.2670530587313116
 40
0.3726524399414211
 40
0.4783020738108001
 40
0.5840812731450519
 40
0.6901791439384274
 40
0.7970279215328764
 40
0.9055818822805303
 40
1.0
 40
1.0
 40
1.0
 40
1.0
 10
-31.93194531448698
 20
20.65364040140946
 30
0.0
 10
-32.00607747502674
 20
20.69721786777763
 30
0.0
 10
-32.22062374737927
 20
20.82333564041216
 30
0.0
 10
-32.54553598760788
 20
21.03595170136591
 30
0.0
 10
-32.88991147387733
 20
21.2903330899039
 30
0.0
 10
-33.18791935824817
 20
21.5446039565936
 30
0.0
 10
-33.4380102224151
 20
21.79592972110811
 30
0.0
 10
-33.63834490452143
 20
22.04141009790139
 30
0.0
 10
-33.78864359532738
 20
22.27820050935994
 30
0.0
 10
-33.88778916105611
 20
22.50316046995424
 30
0.0
 10
-33.94002076822056
 20
22.7053513757849
 30
0.0
 10
-33.93758401747933
 20
22.82424108273519
 30
0.0
 10
-33.93645049497675
 20
22.87954594255256
 30
0.0
  0
SPLINE
  5
24D
330
238
100
AcDbEntity
 67
     1
  8
0
  6
Continuous
 62
     7
370
    25
100
AcDbSpline
210
0.0
220
0.0
230
1.0
 70
     8
 71
     3
 72
    11
 73
     7
 74
     0
 42
0.000000001
 43
0.00000001
 40
0.0
 40
0.0
 40
0.0
 40
0.0
 40
0.1739222273980162
 40
0.4923810862537461
 40
0.8097028342402794
 40
0.9999999999999999
 40
0.9999999999999999
 40
0.9999999999999999
 40
0.9999999999999999
 10
25.51489191247766
 20
-6.884902308789208
 30
0.0
 10
25.5393307903921
 20
-6.946540349218592
 30
0.0
 10
25.6085182739838
 20
-7.121040214791961
 30
0.0
 10
25.68283204698358
 20
-7.450288519141056
 30
0.0
 10
25.73373666078763
 20
-7.807588714886355
 30
0.0
 10
25.74446945460819
 20
-8.042562623216853
 30
0.0
 10
25.7484929852321
 20
-8.130650099021842
 30
0.0
  0
SPLINE
  5
24E
330
238
100
AcDbEntity
 67
     1
  8
0
  6
Continuous
 62
     7
370
    25
100
AcDbSpline
210
0.0
220
0.0
230
1.0
 70
     8
 71
     3
 72
    16
 73
    12
 74
     0
 42
0.000000001
 43
0.00000001
 40
0.0
 40
0.0
 40
0.0
 40
0.0
 40
0.0831212280134588
 40
0.200616999757619
 40
0.3180798103757145
 40
0.4343282423235665
 40
0.5491853323120547
 40
0.6627989170401449
 40
0.775418297574815
 40
0.8873122143402113
 40
1.0
 40
1.0
 40
1.0
 40
1.0
 10
-38.50816066341947
 20
17.82143852548336
 30
0.0
 10
-38.4797898427822
 20
17.7579654740294
 30
0.0
 10
-38.41131553058862
 20
17.60477027404882
 30
0.0
 10
-38.24221254031587
 20
17.35518136199117
 30
0.0
 10
-38.01082734711053
 20
17.07340530957653
 30
0.0
 10
-37.72877144999408
 20
16.78660963163473
 30
0.0
 10
-37.40140855372787
 20
16.49673814299557
 30
0.0
 10
-37.03077830585081
 20
16.20471316825319
 30
0.0
 10
-36.61827986112391
 20
15.91144935254288
 30
0.0
 10
-36.16756407659524
 20
15.61664902558742
 30
0.0
 10
-35.83455571812423
 20
15.42011859278087
 30
0.0
 10
-35.66746296694696
 20
15.32150602083679
 30
0.0
  0
SPLINE
  5
253
330
238
100
AcDbEntity
 67
     1
  8
0
  6
Continuous
 62
     7
370
    25
100
AcDbSpline
210
0.0
220
0.0
230
1.0
 70
     8
 71
     3
 72
    16
 73
    12
 74
     0
 42
0.000000001
 43
0.00000001
 40
0.0
 40
0.0
 40
0.0
 40
0.0
 40
0.0657726198100219
 40
0.1906466130772109
 40
0.3155579385341208
 40
0.4404458591830343
 40
0.5652650694985548
 40
0.6899545737671853
 40
0.8144396854487097
 40
0.9386399815875923
 40
1.0
 40
1.0
 40
1.0
 40
1.0
 10
34.25324940457385
 20
-6.663627721454093
 30
0.0
 10
34.35491778285476
 20
-6.603635961364894
 30
0.0
 10
34.64961080302478
 20
-6.429745581042777
 30
0.0
 10
35.10636695614443
 20
-6.124180100666479
 30
0.0
 10
35.60712598807765
 20
-5.741137197766616
 30
0.0
 10
36.06148257185186
 20
-5.337984137890477
 30
0.0
 10
36.46749297501541
 20
-4.916983039761972
 30
0.0
 10
36.82387990893758
 20
-4.480196396976957
 30
0.0
 10
37.12511587687824
 20
-4.029212325672687
 30
0.0
 10
37.34011738014551
 20
-3.645885532638818
 30
0.0
 10
37.43336388719186
 20
-3.410150158037941
 30
0.0
 10
37.46419810626016
 20
-3.332198539121239
 30
0.0
  0
SPLINE
  5
258
330
238
100
AcDbEntity
 67
     1
  8
0
  6
Continuous
 62
     7
370
    25
100
AcDbSpline
210
0.0
220
0.0
230
1.0
 70
     8
 71
     3
 72
    18
 73
    14
 74
     0
 42
0.000000001
 43
0.00000001
 40
0.0
 40
0.0
 40
0.0
 40
0.0
 40
0.0524944057011149
 40
0.1522814383142649
 40
0.2520689211687895
 40
0.3518549479127905
 40
0.4516406387402303
 40
0.5514273120849241
 40
0.6512169323776074
 40
0.7510118981288956
 40
0.850815080911856
 40
0.9506298500508635
 40
1.0
 40
1.0
 40
1.0
 40
1.0
 10
-11.62988242794973
 20
32.7991048418952
 30
0.0
 10
-11.82600183020991
 20
32.68091810647176
 30
0.0
 10
-12.39492616145308
 20
32.33806926725599
 30
0.0
 10
-13.33691348023218
 20
31.80531943204756
 30
0.0
 10
-14.4542791711731
 20
31.21676242343263
 30
0.0
 10
-15.56895488301707
 20
30.67596231561245
 30
0.0
 10
-16.67949843605342
 20
30.18281907446161
 30
0.0
 10
-17.78452161967673
 20
29.73812352902118
 30
0.0
 10
-18.88261844023246
 20
29.34241809881242
 30
0.0
 10
-19.97247539364064
 20
28.99596784992282
 30
0.0
 10
-21.05250730147395
 20
28.70002033706919
 30
0.0
 10
-21.94195803675396
 20
28.49362494072946
 30
0.0
 10
-22.4693174783057
 20
28.39219635621613
 30
0.0
 10
-22.64383789810176
 20
28.35863033320819
 30
0.0
  0
SPLINE
  5
259
330
238
100
AcDbEntity
 67
     1
  8
0
  6
Continuous
 62
     7
370
    25
100
AcDbSpline
210
0.0
220
0.0
230
1.0
 70
     8
 71
     3
 72
    31
 73
    27
 74
     0
 42
0.000000001
 43
0.00000001
 40
0.0
 40
0.0
 40
0.0
 40
0.0
 40
0.0264519546361993
 40
0.0692280165397083
 40
0.1120606651142932
 40
0.1549484691270732
 40
0.1976044673944231
 40
0.2403798077885992
 40
0.2834598896015224
 40
0.326826114260483
 40
0.3704419268841494
 40
0.4142543088342135
 40
0.4581976397574989
 40
0.5021940425624499
 40
0.5461689348306883
 40
0.589720438995994
 40
0.6336664227006047
 40
0.6778333105533111
 40
0.7220242909147372
 40
0.766013154028967
 40
0.8096369095702786
 40
0.852761797743354
 40
0.8952945339510271
 40
0.9379376472048325
 40
0.9808757866247858
 40
0.9999999999999999
 40
0.9999999999999999
 40
0.9999999999999999
 40
0.9999999999999999
 10
5.257117115155538
 20
34.35977420219856
 30
0.0
 10
5.139069373306383
 20
34.4285481001048
 30
0.0
 10
4.830123923429309
 20
34.60853784404747
 30
0.0
 10
4.288704605157586
 20
34.85895205621024
 30
0.0
 10
3.640705803541491
 20
35.11356223482323
 30
0.0
 10
2.961726364430848
 20
35.32674014997388
 30
0.0
 10
2.256983565057484
 20
35.50032132280211
 30
0.0
 10
1.527923549454205
 20
35.63487999225914
 30
0.0
 10
0.7749285007311902
 20
35.73126547727511
 30
0.0
 10
0.0002852717681488
 20
35.78972312715566
 30
0.0
 10
-0.7921819310465483
 20
35.81055339582235
 30
0.0
 10
-1.598257665390089
 20
35.7943182216512
 30
0.0
 10
-2.413362675641881
 20
35.74186969517675
 30
0.0
 10
-3.232651060659453
 20
35.65440180700024
 30
0.0
 10
-4.049225414365132
 20
35.53360462932262
 30
0.0
 10
-4.861592585302117
 20
35.3816443975705
 30
0.0
 10
-5.667826422977886
 20
35.20033648195091
 30
0.0
 10
-6.467156680518205
 20
34.99067611983081
 30
0.0
 10
-7.252442589760828
 20
34.75530408496255
 30
0.0
 10
-8.016717589409405
 20
34.49722238056672
 30
0.0
 10
-8.75365616291815
 20
34.21970952750824
 30
0.0
 10
-9.457584946709156
 20
33.92579563899829
 30
0.0
 10
-10.12872648109053
 20
33.61743123085015
 30
0.0
 10
-10.76628167358101
 20
33.29405613803225
 30
0.0
 10
-11.26659408683643
 20
33.0207105101539
 30
0.0
 10
-11.5397476699812
 20
32.85119877400336
 30
0.0
 10
-11.62391862343354
 20
32.79896455364685
 30
0.0
  0
SPLINE
  5
25A
330
238
100
AcDbEntity
 67
     1
  8
0
  6
Continuous
 62
     7
370
    25
100
AcDbSpline
210
0.0
220
0.0
230
1.0
 70
     8
 71
     3
 72
    13
 73
     9
 74
     0
 42
0.000000001
 43
0.00000001
 40
0.0
 40
0.0
 40
0.0
 40
0.0
 40
0.1121680128342988
 40
0.3259745658244468
 40
0.5398475206673874
 40
0.7538168447593333
 40
0.9567372040263723
 40
1.0
 40
1.0
 40
1.0
 40
1.0
 10
-20.62169755586048
 20
18.13994254041931
 30
0.0
 10
-20.44699283853844
 20
18.14214384704065
 30
0.0
 10
-19.93927862539049
 20
18.1485411251238
 30
0.0
 10
-19.11230155737852
 20
18.12015678253899
 30
0.0
 10
-18.14801691101382
 20
18.0380708222211
 30
0.0
 10
-17.22088449034911
 20
17.90631782540523
 30
0.0
 10
-16.55934997225923
 20
17.77582022251128
 30
0.0
 10
-16.211029520553
 20
17.69376078731408
 30
0.0
 10
-16.14981771009879
 20
17.67934013940591
 30
0.0
  0
SPLINE
  5
25B
330
238
100
AcDbEntity
 67
     1
  8
0
  6
Continuous
 62
     7
370
    25
100
AcDbSpline
210
0.0
220
0.0
230
1.0
 70
     8
 71
     3
 72
     9
 73
     5
 74
     0
 42
0.000000001
 43
0.00000001
 40
0.0
 40
0.0
 40
0.0
 40
0.0
 40
0.4570949599424401
 40
1.0
 40
1.0
 40
1.0
 40
1.0
 10
-16.14981771009879
 20
17.67934013940592
 30
0.0
 10
-16.09761952114985
 20
17.66608448434546
 30
0.0
 10
-15.98342401797581
 20
17.63708470044471
 30
0.0
 10
-15.88013569986961
 20
17.58796273501275
 30
0.0
 10
-15.82405995139068
 20
17.56129417240221
 30
0.0
  0
SPLINE
  5
25C
330
238
100
AcDbEntity
 67
     1
  8
0
  6
Continuous
 62
     7
370
    25
100
AcDbSpline
210
0.0
220
0.0
230
1.0
 70
     8
 71
     3
 72
    26
 73
    22
 74
     0
 42
0.000000001
 43
0.00000001
 40
0.0
 40
0.0
 40
0.0
 40
0.0
 40
0.0295099458062909
 40
0.085781723021913
 40
0.1420930341165551
 40
0.1984351302435177
 40
0.254810228577659
 40
0.3112160910861937
 40
0.367647980938362
 40
0.4240998332270395
 40
0.4805649141980503
 40
0.5370361668617545
 40
0.5935059978374736
 40
0.6499650633031956
 40
0.7064060309823725
 40
0.7628216408217308
 40
0.8192049278125549
 40
0.8755496773323636
 40
0.9318512700128044
 40
0.9851648761109651
 40
1.0
 40
1.0
 40
1.0
 40
1.0
 10
-11.56727001631439
 20
16.52236265431087
 30
0.0
 10
-11.48964728575708
 20
16.5659346529045
 30
0.0
 10
-11.26400771269314
 20
16.692593005292
 30
0.0
 10
-10.86067322524603
 20
16.88525306028393
 30
0.0
 10
-10.34883685106181
 20
17.09049053148819
 30
0.0
 10
-9.805831353900139
 20
17.2688899319838
 30
0.0
 10
-9.236753667830177
 20
17.41922023925352
 30
0.0
 10
-8.645991510659806
 20
17.54005885177614
 30
0.0
 10
-8.038374160500068
 20
17.63036294291176
 30
0.0
 10
-7.418818036874112
 20
17.68932585511144
 30
0.0
 10
-6.792363077675216
 20
17.7164254803301
 30
0.0
 10
-6.164107595505016
 20
17.71141725065625
 30
0.0
 10
-5.539177215988353
 20
17.67433974074896
 30
0.0
 10
-4.922671490060714
 20
17.60551600625377
 30
0.0
 10
-4.319623374752545
 20
17.50555048371828
 30
0.0
 10
-3.73493662174031
 20
17.37533108645857
 30
0.0
 10
-3.173402546491564
 20
17.21600012855552
 30
0.0
 10
-2.639460368487242
 20
17.02904332504746
 30
0.0
 10
-2.146619405226945
 20
16.81963999428102
 30
0.0
 10
-1.801687862919801
 20
16.64568684050566
 30
0.0
 10
-1.623668661441219
 20
16.54440946818194
 30
0.0
 10
-1.584916113755322
 20
16.52236265431086
 30
0.0
  0
SPLINE
  5
25D
330
238
100
AcDbEntity
 67
     1
  8
0
  6
Continuous
 62
     7
370
    25
100
AcDbSpline
210
0.0
220
0.0
230
1.0
 70
     8
 71
     3
 72
    11
 73
     7
 74
     0
 42
0.000000001
 43
0.00000001
 40
0.0
 40
0.0
 40
0.0
 40
0.0
 40
0.17392222739802
 40
0.4923810862537537
 40
0.8097028342402813
 40
1.0
 40
1.0
 40
1.0
 40
1.0
 10
-17.47720038366436
 20
17.93390429062119
 30
0.0
 10
-17.45276150574993
 20
17.8722662501918
 30
0.0
 10
-17.38357402215823
 20
17.69776638461843
 30
0.0
 10
-17.30926024915844
 20
17.36851808026933
 30
0.0
 10
-17.25835563535439
 20
17.01121788452404
 30
0.0
 10
-17.24762284153383
 20
16.77624397619354
 30
0.0
 10
-17.24359931090991
 20
16.68815650038855
 30
0.0
  0
LWPOLYLINE
  5
26B
330
238
100
AcDbEntity
 67
     1
  8
0
  6
Continuous
 62
     7
370
    25
100
AcDbPolyline
 90
       21
 70
   128
 43
0.0
 10
-35.5220348526
 20
25.9386141479
 10
-36.0443668598
 20
25.8254207508
 10
-36.5207549418
 20
25.6882614339
 10
-36.9482620076
 20
25.5279818301
 10
-37.324252334
 20
25.3455701163
 10
-37.6464078156
 20
25.1421509214
 10
-37.9127422566
 20
24.9189783925
 10
-38.1216136169
 20
24.6774284624
 10
-38.2717341348
 20
24.4189903667
 10
-38.3621782675
 20
24.1452574622
 10
-38.392388397
 20
23.8579174033
 10
-38.3621782675
 20
23.5587417371
 10
-38.2717341348
 20
23.2495749809
 10
-38.1216136169
 20
22.9323232506
 10
-37.9127422566
 20
22.6089425088
 10
-37.6464078156
 20
22.2814265051
 10
-37.324252334
 20
21.9517944846
 10
-36.9482620076
 20
21.6220787384
 10
-36.5207549418
 20
21.2943120737
 10
-36.0443668598
 20
20.970515281
 10
-35.5220348526
 20
20.6526846751
  0
LWPOLYLINE
  5
26F
330
238
100
AcDbEntity
 67
     1
  8
0
  6
Continuous
 62
     7
370
    25
100
AcDbPolyline
 90
       18
 70
   128
 43
0.0
 10
-31.9865009466
 20
20.6613105177
 10
-32.4345367132
 20
20.9365225573
 10
-32.8353139392
 20
21.2174444769
 10
-33.1854133348
 20
21.5016795497
 10
-33.4818479752
 20
21.7868027822
 10
-33.7220887848
 20
22.0703816035
 10
-33.9040861135
 20
22.3499966192
 10
-34.0262872244
 20
22.6232622525
 10
-34.0876495407
 20
22.8878470973
 10
-34.0876495407
 20
23.1414938091
 10
-34.0262872244
 20
23.3820383636
 10
-33.9040861135
 20
23.6074285194
 10
-33.7220887848
 20
23.8157413272
 10
-33.4818479752
 20
24.0051995356
 10
-33.1854133348
 20
24.1741867539
 10
-32.8353139392
 20
24.3212612427
 10
-32.4345367132
 20
24.4451682145
 10
-31.9865009466
 20
24.5448505385
  0
SPLINE
  5
282
330
238
100
AcDbEntity
 67
     1
  8
0
  6
Continuous
 62
     7
370
    25
100
AcDbSpline
210
0.0
220
0.0
230
1.0
 70
     8
 71
     3
 72
    27
 73
    23
 74
     0
 42
0.000000001
 43
0.00000001
 40
0.0
 40
0.0
 40
0.0
 40
0.0
 40
0.1250000000000002
 40
0.1250000000000002
 40
0.1875000000000003
 40
0.1875000000000003
 40
0.2500000000000004
 40
0.2500000000000004
 40
0.3750000000000002
 40
0.3750000000000002
 40
0.5000000000000004
 40
0.5000000000000004
 40
0.6250000000000007
 40
0.6250000000000007
 40
0.6875000000000006
 40
0.6875000000000006
 40
0.7500000000000004
 40
0.8125000000000003
 40
0.8125000000000003
 40
0.8750000000000002
 40
0.8750000000000002
 40
1.0
 40
1.0
 40
1.0
 40
1.0
 10
-11.65856684807529
 20
29.66779805410676
 30
0.0
 10
-11.32360493334803
 20
29.83734055936545
 30
0.0
 10
-10.96100418666544
 20
29.99126407953585
 30
0.0
 10
-10.37721385727036
 20
30.19904010227812
 30
0.0
 10
-10.17592012697842
 20
30.26440947584716
 30
0.0
 10
-9.759616241167901
 20
30.38696009197394
 30
0.0
 10
-9.544109291447432
 20
30.44418604525549
 30
0.0
 10
-8.89128907862546
 20
30.5992425062997
 30
0.0
 10
-8.44323483746229
 20
30.68208907689906
 30
0.0
 10
-7.521621677596515
 20
30.80417985542716
 30
0.0
 10
-7.04602065445062
 20
30.84292027535349
 30
0.0
 10
-6.109732191424393
 20
30.86932307431935
 30
0.0
 10
-5.644015430163785
 20
30.85790499720348
 30
0.0
 10
-4.949057403100728
 20
30.80026006995722
 30
0.0
 10
-4.719165974740827
 20
30.77426265308106
 30
0.0
 10
-4.270271813292493
 20
30.70944094330609
 30
0.0
 10
-3.830025948480271
 20
30.63162417048301
 30
0.0
 10
-3.406829974962399
 20
30.52747284087722
 30
0.0
 10
-2.992285629718681
 20
30.40965802455679
 30
0.0
 10
-2.788426543144157
 20
30.34355619992761
 30
0.0
 10
-2.198865394187564
 20
30.1267566198397
 30
0.0
 10
-1.834432617507747
 20
29.95794087454897
 30
0.0
 10
-1.498894121150953
 20
29.76423862367053
 30
0.0
  0
SPLINE
  5
285
330
238
100
AcDbEntity
 67
     1
  8
0
  6
Continuous
 62
     7
370
    25
100
AcDbSpline
210
0.0
220
0.0
230
1.0
 70
     8
 71
     3
 72
    30
 73
    26
 74
     0
 42
0.000000001
 43
0.00000001
 40
0.0
 40
0.0
 40
0.0
 40
0.0
 40
0.1249999999999997
 40
0.1249999999999997
 40
0.1874999999999998
 40
0.1874999999999998
 40
0.2499999999999998
 40
0.2499999999999998
 40
0.3124999999999999
 40
0.3124999999999999
 40
0.375
 40
0.375
 40
0.5
 40
0.5
 40
0.5625
 40
0.5625
 40
0.6250000000000001
 40
0.6250000000000001
 40
0.7500000000000004
 40
0.7500000000000004
 40
0.8125000000000003
 40
0.8125000000000003
 40
0.8750000000000003
 40
0.8750000000000003
 40
1.0
 40
1.0
 40
1.0
 40
1.0
 10
5.120837631642526
 20
34.32570500173257
 30
0.0
 10
4.567498992844194
 20
34.64514059853298
 30
0.0
 10
3.96672762811089
 20
34.91012961822067
 30
0.0
 10
2.995438135775231
 20
35.22881589459706
 30
0.0
 10
2.659810394244087
 20
35.32165405142841
 30
0.0
 10
1.978433532155492
 20
35.47818873875035
 30
0.0
 10
1.63106297113105
 20
35.54246824854236
 30
0.0
 10
0.9231612359055924
 20
35.64452588074646
 30
0.0
 10
0.5626297997366956
 20
35.68230200037623
 30
0.0
 10
-0.1718064065331787
 20
35.73217651390216
 30
0.0
 10
-0.54732662846756
 20
35.74426101036833
 30
0.0
 10
-1.683564377688823
 20
35.74238666030349
 30
0.0
 10
-2.443453762368198
 20
35.69120473470271
 30
0.0
 10
-3.588037333630747
 20
35.54905544091433
 30
0.0
 10
-3.970361366791304
 20
35.49068293443484
 30
0.0
 10
-4.736865542355001
 20
35.35249651711339
 30
0.0
 10
-5.120243861126164
 20
35.27269650479088
 30
0.0
 10
-6.24908332278144
 20
35.00771690274444
 30
0.0
 10
-6.98152430840213
 20
34.79589819722955
 30
0.0
 10
-8.05042961655034
 20
34.43007916482249
 30
0.0
 10
-8.40365267638958
 20
34.29923515718382
 30
0.0
 10
-9.087302187689597
 20
34.02630165021762
 30
0.0
 10
-9.418194127413619
 20
33.88418674319734
 30
0.0
 10
-10.37873449193672
 20
33.441962539285
 30
0.0
 10
-10.97658217092503
 20
33.12622988216154
 30
0.0
 10
-11.52973711526125
 20
32.78929381415572
 30
0.0
  0
SPLINE
  5
287
330
238
100
AcDbEntity
 67
     1
  8
0
  6
Continuous
 62
     7
370
    25
100
AcDbSpline
210
0.0
220
0.0
230
1.0
 70
     8
 71
     3
 72
    28
 73
    24
 74
     0
 42
0.000000001
 43
0.00000001
 40
0.0
 40
0.0
 40
0.0
 40
0.0
 40
0.1249999999999998
 40
0.1249999999999998
 40
0.1874999999999996
 40
0.1874999999999996
 40
0.2499999999999993
 40
0.2499999999999993
 40
0.3749999999999997
 40
0.3749999999999997
 40
0.5
 40
0.5
 40
0.5625000000000002
 40
0.5625000000000002
 40
0.6250000000000004
 40
0.6250000000000004
 40
0.7500000000000003
 40
0.7500000000000003
 40
0.8125000000000002
 40
0.8125000000000002
 40
0.8750000000000001
 40
0.8750000000000001
 40
1.0
 40
1.0
 40
1.0
 40
1.0
 10
34.14936094938964
 20
6.419311802282167
 30
0.0
 10
34.70245070687577
 20
6.756208163870847
 30
0.0
 10
35.19311285897501
 20
7.137012761059802
 30
0.0
 10
35.83754350474216
 20
7.7714608798015
 30
0.0
 10
36.03721173473235
 20
7.994141584965173
 30
0.0
 10
36.39818498451829
 20
8.451299451898782
 30
0.0
 10
36.56061580335254
 20
8.686755799830193
 30
0.0
 10
36.99523264617127
 20
9.412256402349838
 30
0.0
 10
37.21567984073401
 20
9.922827877142687
 30
0.0
 10
37.51066983844586
 20
10.9834507379
 30
0.0
 10
37.58163648506166
 20
11.51888705059865
 30
0.0
 10
37.57798887398881
 20
12.32349526300613
 30
0.0
 10
37.55827891374992
 20
12.59194536730487
 30
0.0
 10
37.48091599968309
 20
13.12828643853993
 30
0.0
 10
37.42300505195241
 20
13.39608816019699
 30
0.0
 10
37.19566029604794
 20
14.18004623935324
 30
0.0
 10
36.97256278851415
 20
14.68270588705909
 30
0.0
 10
36.52920413952858
 20
15.40064406556136
 30
0.0
 10
36.36205185631822
 20
15.63516926940636
 30
0.0
 10
35.9959427882009
 20
16.08303830236642
 30
0.0
 10
35.79719841374273
 20
16.29656544243738
 30
0.0
 10
35.15482933564598
 20
16.90565154426392
 30
0.0
 10
34.66552761826143
 20
17.26991851508064
 30
0.0
 10
34.11221566029094
 20
17.58933870936699
 30
0.0
  0
SPLINE
  5
28A
330
238
100
AcDbEntity
 67
     1
  8
0
  6
Continuous
 62
     7
370
    25
100
AcDbSpline
210
0.0
220
0.0
230
1.0
 70
     8
 71
     3
 72
    27
 73
    23
 74
     0
 42
0.000000001
 43
0.00000001
 40
0.0
 40
0.0
 40
0.0
 40
0.0
 40
0.1249999999999997
 40
0.1249999999999997
 40
0.1874999999999999
 40
0.1874999999999999
 40
0.2500000000000002
 40
0.2500000000000002
 40
0.3750000000000001
 40
0.3750000000000001
 40
0.5
 40
0.5
 40
0.6249999999999999
 40
0.6249999999999999
 40
0.6874999999999997
 40
0.6874999999999997
 40
0.7499999999999993
 40
0.8124999999999996
 40
0.8124999999999996
 40
0.8749999999999998
 40
0.8749999999999998
 40
1.0
 40
1.0
 40
1.0
 40
1.0
 10
28.62385475739592
 20
12.3747458418468
 30
0.0
 10
28.95941210989416
 20
12.18103270554961
 30
0.0
 10
29.25668178014456
 20
11.96785871665841
 30
0.0
 10
29.64749948477441
 20
11.6206002476808
 30
0.0
 10
29.76852304256887
 20
11.50024004002034
 30
0.0
 10
29.99165320728607
 20
11.25030408875236
 30
0.0
 10
30.09391981920147
 20
11.12030079359727
 30
0.0
 10
30.36552259168506
 20
10.72509674177364
 30
0.0
 10
30.50250637783527
 20
10.45228840914877
 30
0.0
 10
30.68899067453039
 20
9.890963700046548
 30
0.0
 10
30.73756987814617
 20
9.600678528009377
 30
0.0
 10
30.74101720634329
 20
9.031972170268538
 30
0.0
 10
30.69739527837869
 20
8.750664820784536
 30
0.0
 10
30.56202645007737
 20
8.335957175932343
 30
0.0
 10
30.50503383352861
 20
8.199088187767197
 30
0.0
 10
30.37003636932802
 20
7.934307310719726
 30
0.0
 10
30.21358098944156
 20
7.676890942103334
 30
0.0
 10
30.01481741347814
 20
7.434670252052488
 30
0.0
 10
29.79458910563867
 20
7.200442887396934
 30
0.0
 10
29.67312152146119
 20
7.086836306789382
 30
0.0
 10
29.27997650003022
 20
6.762763264149981
 30
0.0
 10
28.9815032801454
 20
6.569720348815577
 30
0.0
 10
28.64651967955785
 20
6.400166867159513
 30
0.0
  0
SPLINE
  5
28C
330
238
100
AcDbEntity
 67
     1
  8
0
  6
Continuous
 62
     7
370
    25
100
AcDbSpline
210
0.0
220
0.0
230
1.0
 70
     8
 71
     3
 72
    14
 73
    10
 74
     0
 42
0.000000001
 43
0.00000001
 40
0.0
 40
0.0
 40
0.0
 40
0.0
 40
0.1109417924896656
 40
0.260635816409573
 40
0.4091315484642017
 40
0.5586166927238732
 40
0.7112079260094373
 40
0.8648728011589232
 40
1.0
 40
1.0
 40
1.0
 40
1.0
 10
37.35218389202091
 20
14.16759866250893
 30
0.0
 10
37.41751204713582
 20
14.00503681736144
 30
0.0
 10
37.57098763699967
 20
13.62312988872579
 30
0.0
 10
37.71877967623893
 20
13.00151688600865
 30
0.0
 10
37.809216367359
 20
12.31299842892185
 30
0.0
 10
37.81636749385452
 20
11.61452847091145
 30
0.0
 10
37.73842582862879
 20
10.91071770724951
 30
0.0
 10
37.58823795968023
 20
10.23572279295346
 30
0.0
 10
37.42294237011083
 20
9.807826924514874
 30
0.0
 10
37.34559976963481
 20
9.60761239196622
 30
0.0
  0
SPLINE
  5
28E
330
238
100
AcDbEntity
 67
     1
  8
0
  6
Continuous
 62
     7
370
    25
100
AcDbSpline
210
0.0
220
0.0
230
1.0
 70
     8
 71
     3
 72
    11
 73
     7
 74
     0
 42
0.000000001
 43
0.00000001
 40
0.0
 40
0.0
 40
0.0
 40
0.0
 40
0.0205383305950497
 40
0.3893614065241845
 40
0.7689273388380161
 40
1.0
 40
1.0
 40
1.0
 40
1.0
 10
30.35050133657905
 20
8.174582066300689
 30
0.0
 10
30.3571855756775
 20
8.186617649658276
 30
0.0
 10
30.48390399248709
 20
8.414785739696617
 30
0.0
 10
30.54925187646615
 20
8.909348575606243
 30
0.0
 10
30.55863258693817
 20
9.53826517689312
 30
0.0
 10
30.415259090349
 20
9.921914324148917
 30
0.0
 10
30.36100491160741
 20
10.06709157032381
 30
0.0
  0
LWPOLYLINE
  5
291
330
238
100
AcDbEntity
 67
     1
  8
0
  6
Continuous
 62
     7
370
    25
100
AcDbPolyline
 90
        3
 70
   128
 43
0.0
 10
-38.6378246381
 20
18.3653170768
 10
-38.6069979754
 20
18.1179772059
 10
-38.5274861537
 20
17.8840852892
  0
LWPOLYLINE
  5
293
330
238
100
AcDbEntity
 67
     1
  8
0
  6
Continuous
 62
     7
370
    25
100
AcDbPolyline
 90
        3
 70
   128
 43
0.0
 10
27.325201876
 20
-7.3307262974
 10
27.1668378712
 20
-7.2490170462
 10
27.1596444881
 20
-7.2457425649
  0
LWPOLYLINE
  5
2A2
330
238
100
AcDbEntity
 67
     1
  8
0
  6
Continuous
 62
     7
370
    25
100
AcDbPolyline
 90
        3
 70
   128
 43
0.0
 10
-11.6252355726
 20
32.8016736588
 10
-11.6285958328
 20
32.79986774
 10
-11.6299469645
 20
32.7990654785
  0
SPLINE
  5
2A3
330
238
100
AcDbEntity
 67
     1
  8
0
  6
Continuous
 62
     7
370
    25
100
AcDbSpline
210
0.0
220
0.0
230
1.0
 70
     8
 71
     3
 72
    27
 73
    23
 74
     0
 42
0.000000001
 43
0.00000001
 40
0.0
 40
0.0
 40
0.0
 40
0.0
 40
0.1249999999999997
 40
0.1249999999999997
 40
0.1874999999999995
 40
0.1874999999999995
 40
0.2499999999999993
 40
0.3124999999999992
 40
0.3124999999999992
 40
0.374999999999999
 40
0.374999999999999
 40
0.4999999999999992
 40
0.4999999999999992
 40
0.6249999999999994
 40
0.6249999999999994
 40
0.7499999999999997
 40
0.7499999999999997
 40
0.8124999999999997
 40
0.8124999999999997
 40
0.8749999999999998
 40
0.8749999999999998
 40
1.0
 40
1.0
 40
1.0
 40
1.0
 10
-1.626345596729023
 20
29.52815301437944
 30
0.0
 10
-1.953320293252287
 20
29.71691148884522
 30
0.0
 10
-2.308623225331811
 20
29.88113695253431
 30
0.0
 10
-2.883626684191929
 20
30.09160267610791
 30
0.0
 10
-3.082458599606293
 20
30.15567630450067
 30
0.0
 10
-3.486760305495832
 20
30.26968368300654
 30
0.0
 10
-3.899501314354934
 20
30.37026234281464
 30
0.0
 10
-4.328862006692535
 20
30.44499565992473
 30
0.0
 10
-4.766647894140049
 20
30.50699404328808
 30
0.0
 10
-4.990878710332995
 20
30.53170615323549
 30
0.0
 10
-5.668348314984796
 20
30.58593682383426
 30
0.0
 10
-6.122248821382812
 20
30.59572367575514
 30
0.0
 10
-7.034595195742082
 20
30.56743295447683
 30
0.0
 10
-7.497890028444514
 20
30.52844751397472
 30
0.0
 10
-8.395293744213406
 20
30.40745334996824
 30
0.0
 10
-8.831527054832845
 20
30.32590977707529
 30
0.0
 10
-9.467077062297692
 20
30.17399916746728
 30
0.0
 10
-9.676855543018263
 20
30.1180355427024
 30
0.0
 10
-10.08206542198115
 20
29.99838713548874
 30
0.0
 10
-10.27801670865905
 20
29.93464645504259
 30
0.0
 10
-10.84638462718209
 20
29.73227914585561
 30
0.0
 10
-11.19950318943842
 20
29.58265239921908
 30
0.0
 10
-11.52584053334069
 20
29.41813849991356
 30
0.0
  0
LWPOLYLINE
  5
2A6
330
238
100
AcDbEntity
 67
     1
  8
0
  6
Continuous
 62
     7
370
    25
100
AcDbPolyline
 90
        3
 70
   128
 43
0.0
 10
-15.6668904201
 20
17.488080302
 10
-15.825254425
 20
17.5697895532
 10
-15.8324478081
 20
17.5730640345
  0
LWPOLYLINE
  5
2A9
330
238
100
AcDbEntity
 67
     1
  8
0
  6
Continuous
 62
     8
370
    25
100
AcDbPolyline
 90
        3
 70
   128
 43
0.0
 10
-0.8722095158
 20
2.7619000837
 10
-1.3722802443
 20
3.0046635882
 10
-1.8637520681
 20
3.2718177358
  0
SPLINE
  5
2B5
330
238
100
AcDbEntity
 67
     1
  8
0
  6
Continuous
 62
     8
370
    25
100
AcDbSpline
210
0.0
220
0.0
230
1.0
 70
     8
 71
     3
 72
    13
 73
     9
 74
     0
 42
0.000000001
 43
0.00000001
 40
0.0
 40
0.0
 40
0.0
 40
0.0
 40
0.0181159544413438
 40
0.185389408420448
 40
0.3564453584287352
 40
0.5288373219524252
 40
0.7626278686241931
 40
1.0
 40
1.0
 40
1.0
 40
1.0
 10
37.34559976963481
 20
9.60761239196622
 30
0.0
 10
37.33686071539314
 20
9.582945418360046
 30
0.0
 10
37.24742970576783
 20
9.330516231745596
 30
0.0
 10
36.9965487459181
 20
8.865176220654917
 30
0.0
 10
36.58637812349073
 20
8.219993222901826
 30
0.0
 10
36.01907687351094
 20
7.536059354600203
 30
0.0
 10
35.28045774363817
 20
6.829407912070764
 30
0.0
 10
34.6249328497006
 20
6.395351994473844
 30
0.0
 10
34.29467888754755
 20
6.17667427848154
 30
0.0
  0
SPLINE
  5
2B7
330
238
100
AcDbEntity
 67
     1
  8
0
  6
Continuous
 62
     8
370
    25
100
AcDbSpline
210
0.0
220
0.0
230
1.0
 70
     8
 71
     3
 72
    11
 73
     7
 74
     0
 42
0.000000001
 43
0.00000001
 40
0.0
 40
0.0
 40
0.0
 40
0.0
 40
0.1083524688657851
 40
0.408339506029666
 40
0.6999304078884586
 40
1.0
 40
1.0
 40
1.0
 40
1.0
 10
30.36100491160741
 20
10.06709157032381
 30
0.0
 10
30.33587792897601
 20
10.15363411217835
 30
0.0
 10
30.24118382755753
 20
10.47978024582308
 30
0.0
 10
29.87856918139047
 20
11.00531853596465
 30
0.0
 10
29.29420352084591
 20
11.62689841803918
 30
0.0
 10
28.76486522568195
 20
11.96645099420313
 30
0.0
 10
28.49640328181785
 20
12.13866023255571
 30
0.0
  0
LWPOLYLINE
  5
2BE
330
238
100
AcDbEntity
 67
     1
  8
0
  6
Continuous
 62
     8
370
    25
100
AcDbPolyline
 90
       10
 70
   128
 43
0.0
 10
-31.8905158315
 20
24.2823298386
 10
-32.3261061601
 20
24.1905286436
 10
-32.7157506854
 20
24.0751320925
 10
-33.0561250977
 20
23.9371247079
 10
-33.3443254426
 20
23.7776839203
 10
-33.5778928963
 20
23.5981700222
 10
-33.7548347437
 20
23.4001145629
 10
-33.8736413793
 20
23.1852072817
 10
-33.9332991868
 20
22.9552816918
 10
-33.939303
 20
22.8888239976
  0
LINE
  5
2D4
330
238
100
AcDbEntity
 67
     1
  8
0
  6
Continuous
 62
     7
370
    25
100
AcDbLine
 10
-35.6674629669
 20
15.3215060208
 30
0.0
 11
-3.8476578136
 21
-3.0476764952
 31
0.0
  0
LINE
  5
2D5
330
238
100
AcDbEntity
 67
     1
  8
0
  6
Continuous
 62
     7
370
    25
100
AcDbLine
 10
-1.8091964359
 20
3.2641476196
 30
0.0
 11
-31.9319453145
 21
20.6536404014
 31
0.0
  0
LINE
  5
2D6
330
238
100
AcDbEntity
 67
     1
  8
0
  6
Continuous
 62
     7
370
    25
100
AcDbLine
 10
20.348254398
 20
3.5398237338
 30
0.0
 11
8.2366694322
 21
1.2929843619
 31
0.0
  0
LINE
  5
2D7
330
238
100
AcDbEntity
 67
     1
  8
0
  6
Continuous
 62
     7
370
    25
100
AcDbLine
 10
10.1157540517
 20
-6.9317973761
 30
0.0
 11
22.3703947403
 21
-6.678864059
 31
0.0
  0
LINE
  5
2D8
330
238
100
AcDbEntity
 67
     1
  8
0
  6
Continuous
 62
     7
370
    25
100
AcDbLine
 10
37.8093975133
 20
-1.6736100892
 30
0.0
 11
37.8093975133
 21
11.9051062804
 31
0.0
  0
LINE
  5
2D9
330
238
100
AcDbEntity
 67
     1
  8
0
  6
Continuous
 62
     7
370
    25
100
AcDbLine
 10
-38.6378246381
 20
23.6770375146
 30
0.0
 11
-38.6378246381
 21
18.3653170768
 31
0.0
  0
LINE
  5
2DA
330
238
100
AcDbEntity
 67
     1
  8
0
  6
Continuous
 62
     7
370
    25
100
AcDbLine
 10
28.7353999786
 20
-9.8490143922
 30
0.0
 11
34.2532494046
 21
-6.6636277215
 31
0.0
  0
LINE
  5
2DB
330
238
100
AcDbEntity
 67
     1
  8
0
  6
Continuous
 62
     7
370
    25
100
AcDbLine
 10
25.8484104636
 20
-8.2978389797
 30
0.0
 11
28.5354162321
 21
-9.8490143922
 31
0.0
  0
LINE
  5
2DC
330
238
100
AcDbEntity
 67
     1
  8
0
  6
Continuous
 62
     7
370
    25
100
AcDbLine
 10
34.2532494046
 20
17.6299615757
 30
0.0
 11
5.2618713759
 21
34.3663278681
 31
0.0
  0
LINE
  5
2DD
330
238
100
AcDbEntity
 67
     1
  8
0
  6
Continuous
 62
     7
370
    25
100
AcDbLine
 10
-22.6438378981
 20
28.3586303332
 30
0.0
 11
-35.6039510014
 21
25.9543791583
 31
0.0
  0
LINE
  5
2DE
330
238
100
AcDbEntity
 67
     1
  8
0
  6
Continuous
 62
     7
370
    25
100
AcDbLine
 10
-27.3375102893
 20
18.0013295174
 30
0.0
 11
-20.6216975559
 21
18.1399425404
 31
0.0
  0
LINE
  5
2DF
330
238
100
AcDbEntity
 67
     1
  8
0
  6
Continuous
 62
     7
370
    25
100
AcDbLine
 10
-1.5849161138
 20
16.5223626543
 30
0.0
 11
20.7569310275
 21
3.6246888344
 31
0.0
  0
LINE
  5
2E0
330
238
100
AcDbEntity
 67
     1
  8
0
  6
Continuous
 62
     7
370
    25
100
AcDbLine
 10
-14.2566923175
 20
14.9697922072
 30
0.0
 11
-11.5672700163
 21
16.5223626543
 31
0.0
  0
LINE
  5
2E1
330
238
100
AcDbEntity
 67
     1
  8
0
  6
Continuous
 62
     7
370
    25
100
AcDbLine
 10
-17.1436818326
 20
16.5209676197
 30
0.0
 11
-14.4566760641
 21
14.9697922072
 31
0.0
  0
LINE
  5
2E2
330
238
100
AcDbEntity
 67
     1
  8
0
  6
Continuous
 62
     7
370
    25
100
AcDbLine
 10
-3.8890872965
 20
-2.9561075339
 30
0.0
 11
-3.8890872965
 21
2.0209814592
 31
0.0
  0
LINE
  5
2E3
330
238
100
AcDbEntity
 67
     1
  8
0
  6
Continuous
 62
     7
370
    25
100
AcDbLine
 10
10.2530483272
 20
-0.6938885638
 30
0.0
 11
10.2530483272
 21
-6.8134807738
 31
0.0
  0
LINE
  5
2E4
330
238
100
AcDbEntity
 67
     1
  8
0
  6
Continuous
 62
     7
370
    25
100
AcDbLine
 10
10.1570632121
 20
-0.4313678639
 30
0.0
 11
23.1171763153
 21
1.972883311
 31
0.0
  0
LINE
  5
2E5
330
238
100
AcDbEntity
 67
     1
  8
0
  6
Continuous
 62
     7
370
    25
100
AcDbLine
 10
-35.5220348526
 20
20.6526846751
 30
0.0
 11
-3.7022296992
 21
2.2835021591
 31
0.0
  0
LINE
  5
2E6
330
238
100
AcDbEntity
 67
     1
  8
0
  6
Continuous
 62
     7
370
    25
100
AcDbLine
 10
-22.5619217493
 20
28.3428653228
 30
0.0
 11
-35.5220348526
 21
25.9386141479
 31
0.0
  0
LINE
  5
2E7
330
238
100
AcDbEntity
 67
     1
  8
0
  6
Continuous
 62
     7
370
    25
100
AcDbLine
 10
-22.5619217493
 20
28.3428653228
 30
0.0
 11
-19.8749159808
 21
26.7916899104
 31
0.0
  0
LINE
  5
2E8
330
238
100
AcDbEntity
 67
     1
  8
0
  6
Continuous
 62
     7
370
    25
100
AcDbLine
 10
-31.9865009466
 20
24.5448505385
 30
0.0
 11
-19.8749159808
 21
26.7916899104
 31
0.0
  0
LINE
  5
2E9
330
238
100
AcDbEntity
 67
     1
  8
0
  6
Continuous
 62
     7
370
    25
100
AcDbLine
 10
-1.8637520681
 20
3.2718177358
 30
0.0
 11
-31.9865009466
 21
20.6613105177
 31
0.0
  0
LINE
  5
2EA
330
238
100
AcDbEntity
 67
     1
  8
0
  6
Continuous
 62
     7
370
    25
100
AcDbLine
 10
20.4301705468
 20
3.5240587234
 30
0.0
 11
8.318585581
 21
1.2772193516
 31
0.0
  0
LINE
  5
2EB
330
238
100
AcDbEntity
 67
     1
  8
0
  6
Continuous
 62
     7
370
    25
100
AcDbLine
 10
20.4301705468
 20
3.5240587234
 30
0.0
 11
23.1171763153
 21
1.972883311
 31
0.0
  0
LINE
  5
2EC
330
238
100
AcDbEntity
 67
     1
  8
0
  6
Continuous
 62
     7
370
    25
100
AcDbLine
 10
-3.8890872965
 20
2.0209814592
 30
0.0
 11
-35.7088924499
 21
20.3901639752
 31
0.0
  0
LINE
  5
2ED
330
238
100
AcDbEntity
 67
     1
  8
0
  6
Continuous
 62
     7
370
    25
100
AcDbLine
 10
-35.7088924499
 20
15.4130749821
 30
0.0
 11
-3.8890872965
 21
-2.9561075339
 31
0.0
  0
LINE
  5
2EE
330
238
100
AcDbEntity
 67
     1
  8
0
  6
Continuous
 62
     7
370
    25
100
AcDbLine
 10
-35.7088924499
 20
20.3901639752
 30
0.0
 11
-35.7088924499
 21
15.4130749821
 31
0.0
  0
LINE
  5
2EF
330
238
100
AcDbEntity
 67
     1
  8
0
  6
Continuous
 62
     7
370
    25
100
AcDbLine
 10
23.2131614305
 20
1.7103626111
 30
0.0
 11
10.2530483272
 21
-0.6938885638
 31
0.0
  0
LINE
  5
2F0
330
238
100
AcDbEntity
 67
     1
  8
0
  6
Continuous
 62
     7
370
    25
100
AcDbLine
 10
10.2530483272
 20
-6.8134807738
 30
0.0
 11
22.5076890158
 21
-6.5605474567
 31
0.0
  0
LINE
  5
2F1
330
238
100
AcDbEntity
 67
     1
  8
0
  6
Continuous
 62
     7
370
    25
100
AcDbLine
 10
34.2946788875
 20
-6.5720587602
 30
0.0
 11
34.2946788875
 21
6.1766742785
 31
0.0
  0
LINE
  5
2F2
330
238
100
AcDbEntity
 67
     1
  8
0
  6
Continuous
 62
     7
370
    25
100
AcDbLine
 10
28.7768294616
 20
-9.7574454309
 30
0.0
 11
34.2946788875
 21
-6.5720587602
 31
0.0
  0
LINE
  5
2F3
330
238
100
AcDbEntity
 67
     1
  8
0
  6
Continuous
 62
     7
370
    25
100
AcDbLine
 10
-1.4988941212
 20
29.7642386237
 30
0.0
 11
28.6238547574
 21
12.3747458418
 31
0.0
  0
LINE
  5
2F4
330
238
100
AcDbEntity
 67
     1
  8
0
  6
Continuous
 62
     7
370
    25
100
AcDbLine
 10
34.1122156603
 20
17.5893387094
 30
0.0
 11
5.1208376316
 21
34.3257050017
 31
0.0
  0
LINE
  5
2F5
330
238
100
AcDbEntity
 67
     1
  8
0
  6
Continuous
 62
     7
370
    25
100
AcDbLine
 10
25.8070635413
 20
-8.2118017736
 30
0.0
 11
28.4940693099
 21
-9.7629771861
 31
0.0
  0
LINE
  5
2F6
330
238
100
AcDbEntity
 67
     1
  8
0
  6
Continuous
 62
     7
370
    25
100
AcDbLine
 10
-33.939303
 20
22.8888239976
 30
0.0
 11
-33.9407683632
 21
22.8352954905
 31
0.0
  0
LINE
  5
2F7
330
238
100
AcDbEntity
 67
     1
  8
0
  6
Continuous
 62
     7
370
    25
100
AcDbLine
 10
28.4964032818
 20
12.1386602326
 30
0.0
 11
-1.6263455967
 21
29.5281530144
 31
0.0
  0
LINE
  5
2F8
330
238
100
AcDbEntity
 67
     1
  8
0
  6
Continuous
 62
     7
370
    25
100
AcDbLine
 10
-1.6263455967
 20
29.5281530144
 30
0.0
 11
-1.6263455967
 21
16.6139316156
 31
0.0
  0
LINE
  5
2F9
330
238
100
AcDbEntity
 67
     1
  8
0
  6
Continuous
 62
     7
370
    25
100
AcDbLine
 10
-19.7789308657
 20
26.5291692105
 30
0.0
 11
-31.8905158315
 21
24.2823298386
 31
0.0
  0
LINE
  5
2FA
330
238
100
AcDbEntity
 67
     1
  8
0
  6
Continuous
 62
     7
370
    25
100
AcDbLine
 10
-11.5258405333
 20
16.6139316156
 30
0.0
 11
-11.5258405333
 21
29.4181384999
 31
0.0
  0
LINE
  5
2FB
330
238
100
AcDbEntity
 67
     1
  8
0
  6
Continuous
 62
     7
370
    25
100
AcDbLine
 10
-14.2152628346
 20
15.0613611685
 30
0.0
 11
-11.5258405333
 21
16.6139316156
 31
0.0
  0
LINE
  5
2FC
330
238
100
AcDbEntity
 67
     1
  8
0
  6
Continuous
 62
     7
370
    25
100
AcDbLine
 10
-17.1850287548
 20
16.6070048258
 30
0.0
 11
-14.4980229863
 21
15.0558294134
 31
0.0
  0
LINE
  5
2FD
330
238
100
AcDbEntity
 67
     1
  8
0
  6
Continuous
 62
     8
370
    25
100
AcDbLine
 10
28.4964032818
 20
6.3852785402
 30
0.0
 11
28.4964032818
 21
12.1386602326
 31
0.0
  0
LINE
  5
2FE
330
238
100
AcDbEntity
 67
     1
  8
0
  6
Continuous
 62
     8
370
    25
100
AcDbLine
 10
-31.8905158315
 20
24.2823298386
 30
0.0
 11
-31.8905158315
 21
20.62972367
 31
0.0
  0
LINE
  5
2FF
330
238
100
AcDbEntity
 67
     1
  8
0
  6
Continuous
 62
     8
370
    25
100
AcDbLine
 10
-1.6263455967
 20
16.6139316156
 30
0.0
 11
20.8431181377
 21
3.6425863045
 31
0.0
  0
LINE
  5
300
330
238
100
AcDbEntity
 67
     1
  8
0
  6
Continuous
 62
     8
370
    25
100
AcDbLine
 10
-27.5306488789
 20
18.1128260519
 30
0.0
 11
-20.4844032804
 21
18.2582591427
 31
0.0
  0
ARC
  5
301
330
238
100
AcDbEntity
 67
     1
  8
0
  6
Continuous
 62
     7
370
    25
100
AcDbCircle
 10
28.6354081054
 20
-9.6758046197
 30
0.0
 40
0.1999999999999995
100
AcDbArc
 50
240.0026882663
 51
299.9973117337
  0
ARC
  5
302
330
238
100
AcDbEntity
 67
     1
  8
0
  6
Continuous
 62
     7
370
    25
100
AcDbCircle
 10
25.9484023368
 20
-8.1246292073
 30
0.0
 40
0.1999999999999906
100
AcDbArc
 50
181.725119075
 51
240.0026882664
  0
ARC
  5
303
330
238
100
AcDbEntity
 67
     1
  8
0
  6
Continuous
 62
     7
370
    25
100
AcDbCircle
 10
-14.3566841908
 20
15.1430019797
 30
0.0
 40
0.1999999999999953
100
AcDbArc
 50
240.0026882664
 51
299.9973117337
  0
ARC
  5
304
330
238
100
AcDbEntity
 67
     1
  8
0
  6
Continuous
 62
     7
370
    25
100
AcDbCircle
 10
-17.0436899593
 20
16.6941773922
 30
0.0
 40
0.2000000000000056
100
AcDbArc
 50
181.725119075
 51
240.0026882664
  0
ARC
  5
305
330
238
100
AcDbEntity
 67
     1
  8
0
  6
Continuous
 62
     7
370
    25
100
AcDbCircle
 10
7.370584253
 20
22.4825660068
 30
0.0
 40
23.35501328632381
100
AcDbArc
 50
241.176738588
 51
277.0894930813
  0
ARC
  5
306
330
238
100
AcDbEntity
 67
     1
  8
0
  6
Continuous
 62
     7
370
    25
100
AcDbCircle
 10
-3.6052529271
 20
2.0167144869
 30
0.0
 40
0.2838664410185659
100
AcDbArc
 50
109.9761019246
 51
179.1387192251
  0
ARC
  5
307
330
238
100
AcDbEntity
 67
     1
  8
0
  6
Continuous
 62
     7
370
    25
100
AcDbCircle
 10
7.4672107838
 20
22.5700305086
 30
0.0
 40
23.15814399251663
100
AcDbArc
 50
241.163517424
 51
276.6700444257
  0
ARC
  5
308
330
238
100
AcDbEntity
 67
     1
  8
0
  6
Continuous
 62
     7
370
    25
100
AcDbCircle
 10
10.0171861254
 20
-0.6313187569
 30
0.0
 40
0.244020406902346
100
AcDbArc
 50
345.1427198421
 51
55.0250106014
  0
ARC
  5
309
330
238
100
AcDbEntity
 67
     1
  8
0
  6
Continuous
 62
     7
370
    25
100
AcDbCircle
 10
11.0509962921
 20
23.9650685425
 30
0.0
 40
30.78889116181206
100
AcDbArc
 50
240.9716276427
 51
268.5149133807
  0
ARC
  5
30A
330
238
100
AcDbEntity
 67
     1
  8
0
  6
Continuous
 62
     7
370
    25
100
AcDbCircle
 10
6.8307543036
 20
20.0020191315
 30
0.0
 40
18.88272640232888
100
AcDbArc
 50
245.9246903928
 51
266.8049249569
  0
ARC
  5
30B
330
238
100
AcDbEntity
 67
     1
  8
0
  6
Continuous
 62
     7
370
    25
100
AcDbCircle
 10
11.9501848846
 20
26.1027913874
 30
0.0
 40
33.15545387219266
100
AcDbArc
 50
242.3265202088
 51
262.5821716176
  0
ARC
  5
30C
330
238
100
AcDbEntity
 67
     1
  8
0
  6
Continuous
 62
     7
370
    25
100
AcDbCircle
 10
-35.4250580805
 20
20.3858970029
 30
0.0
 40
0.283866441018552
100
AcDbArc
 50
109.9761019246
 51
179.1387192251
  0
ARC
  5
30D
330
238
100
AcDbEntity
 67
     1
  8
0
  6
Continuous
 62
     7
370
    25
100
AcDbCircle
 10
22.9772992287
 20
1.772932418
 30
0.0
 40
0.2440204069023494
100
AcDbArc
 50
345.1427198421
 51
55.0250106014
  0
ARC
  5
30E
330
238
100
AcDbEntity
 67
     1
  8
0
  6
Continuous
 62
     7
370
    25
100
AcDbCircle
 10
22.9582908801
 20
-24.3643088944
 30
0.0
 40
17.8094627479853
100
AcDbArc
 50
76.7828591638
 51
91.4498101805
  0
ARC
  5
30F
330
238
100
AcDbEntity
 67
     1
  8
0
  6
Continuous
 62
     7
370
    25
100
AcDbCircle
 10
16.561236907
 20
34.1951986604
 30
0.0
 40
33.15890035903269
100
AcDbArc
 50
281.5724869592
 51
302.3304758491
  0
ARC
  5
310
330
238
100
AcDbEntity
 67
     1
  8
0
  6
Continuous
 62
     7
370
    25
100
AcDbCircle
 10
26.1813341153
 20
-9.4934993377
 30
0.0
 40
2.608881682368958
100
AcDbArc
 50
354.1933295991
 51
71.0097253633
  0
ARC
  5
311
330
238
100
AcDbEntity
 67
     1
  8
0
  6
Continuous
 62
     7
370
    25
100
AcDbCircle
 10
-25.8251829151
 20
56.9642918402
 30
0.0
 40
30.753724714312
100
AcDbArc
 50
281.1560119744
 51
297.4288756892
  0
ARC
  5
312
330
238
100
AcDbEntity
 67
     1
  8
0
  6
Continuous
 62
     7
370
    25
100
AcDbCircle
 10
-29.184233161
 20
60.6830850167
 30
0.0
 40
33.01128319654694
100
AcDbArc
 50
281.5724869592
 51
302.3304758491
  0
ARC
  5
313
330
238
100
AcDbEntity
 67
     1
  8
0
  6
Continuous
 62
     7
370
    25
100
AcDbCircle
 10
16.4035612709
 20
34.5396395466
 30
0.0
 40
33.25155994351846
100
AcDbArc
 50
281.6483079734
 51
302.254654835
  0
ARC
  5
314
330
238
100
AcDbEntity
 67
     1
  8
0
  6
Continuous
 62
     7
370
    25
100
AcDbCircle
 10
14.4799036125
 20
33.6966606532
 30
0.0
 40
30.75372471431237
100
AcDbArc
 50
281.1560119744
 51
297.4288756892
  0
ARC
  5
315
330
238
100
AcDbEntity
 67
     1
  8
0
  6
Continuous
 62
     7
370
    25
100
AcDbCircle
 10
33.9805473622
 20
6.1533728124
 30
0.0
 40
0.3149945611392563
100
AcDbArc
 50
4.2422837191
 51
57.5933082301
  0
ARC
  5
316
330
238
100
AcDbEntity
 67
     1
  8
0
  6
Continuous
 62
     7
370
    25
100
AcDbCircle
 10
33.6165995897
 20
-1.6564466925
 30
0.0
 40
4.192833052962335
100
AcDbArc
 50
337.1599305569
 51
359.7654585989
  0
ARC
  5
317
330
238
100
AcDbEntity
 67
     1
  8
0
  6
Continuous
 62
     7
370
    25
100
AcDbCircle
 10
28.8071419645
 20
12.123352409
 30
0.0
 40
0.3111155064775837
100
AcDbArc
 50
126.0952328224
 51
177.1797356861
  0
ARC
  5
318
330
238
100
AcDbEntity
 67
     1
  8
0
  6
Continuous
 62
     7
370
    25
100
AcDbCircle
 10
-37.0437318484
 20
23.6552795604
 30
0.0
 40
1.591179650530587
100
AcDbArc
 50
160.4464158451
 51
203.3345715183
  0
ARC
  5
319
330
238
100
AcDbEntity
 67
     1
  8
0
  6
Continuous
 62
     7
370
    25
100
AcDbCircle
 10
28.630304044
 20
-9.497202993
 30
0.0
 40
0.298656700066239
100
AcDbArc
 50
242.8605135785
 51
299.3810031014
  0
ARC
  5
31A
330
238
100
AcDbEntity
 67
     1
  8
0
  6
Continuous
 62
     7
370
    25
100
AcDbCircle
 10
-32.1263780333
 20
24.3448996455
 30
0.0
 40
0.244020406902368
100
AcDbArc
 50
345.1427198421
 51
55.0250106014
  0
ARC
  5
31B
330
238
100
AcDbEntity
 67
     1
  8
0
  6
Continuous
 62
     7
370
    25
100
AcDbCircle
 10
-1.3156069141
 20
29.5128451908
 30
0.0
 40
0.3111155064776198
100
AcDbArc
 50
126.0952328224
 51
177.1797356861
  0
ARC
  5
31C
330
238
100
AcDbEntity
 67
     1
  8
0
  6
Continuous
 62
     7
370
    25
100
AcDbCircle
 10
-20.0147930675
 20
26.5917390174
 30
0.0
 40
0.2440204069023489
100
AcDbArc
 50
345.1427198421
 51
55.0250106014
  0
ARC
  5
31D
330
238
100
AcDbEntity
 67
     1
  8
0
  6
Continuous
 62
     7
370
    25
100
AcDbCircle
 10
-20.033801416
 20
0.454497705
 30
0.0
 40
17.8094627479858
100
AcDbArc
 50
76.7828591638
 51
91.4498101805
  0
ARC
  5
31E
330
238
100
AcDbEntity
 67
     1
  8
0
  6
Continuous
 62
     7
370
    25
100
AcDbCircle
 10
-25.7558057181
 20
56.8366945195
 30
0.0
 40
30.89124671099379
100
AcDbArc
 50
281.1560119744
 51
297.4288756892
  0
ARC
  5
31F
330
238
100
AcDbEntity
 67
     1
  8
0
  6
Continuous
 62
     7
370
    25
100
AcDbCircle
 10
-16.8107581808
 20
15.3253072617
 30
0.0
 40
2.60888168236896
100
AcDbArc
 50
354.1933295991
 51
71.0097253633
  0
ARC
  5
320
330
238
100
AcDbEntity
 67
     1
  8
0
  6
Continuous
 62
     7
370
    25
100
AcDbCircle
 10
-11.8179227885
 20
29.4229694085
 30
0.0
 40
0.2921222029802953
100
AcDbArc
 50
359.0524400836
 51
56.9403941965
  0
ARC
  5
321
330
238
100
AcDbEntity
 67
     1
  8
0
  6
Continuous
 62
     7
370
    25
100
AcDbCircle
 10
-6.576093065
 20
7.0609540209
 30
0.0
 40
10.75915335538207
100
AcDbArc
 50
62.6096722366
 51
117.3903277634
  0
ARC
  5
322
330
238
100
AcDbEntity
 67
     1
  8
0
  6
Continuous
 62
     7
370
    25
100
AcDbCircle
 10
-14.3617882521
 20
15.3216036064
 30
0.0
 40
0.2986567000662215
100
AcDbArc
 50
242.8605135785
 51
299.3810031014
  0
ARC
  5
323
330
238
100
AcDbEntity
 67
     1
  8
0
  6
Continuous
 62
     8
370
    25
100
AcDbCircle
 10
6.4800629581
 20
12.4426519039
 30
0.0
 40
11.31578762240433
100
AcDbArc
 50
266.444512035
 51
279.3505322044
  0
ARC
  5
324
330
238
100
AcDbEntity
 67
     1
  8
0
  6
Continuous
 62
     8
370
    25
100
AcDbCircle
 10
10.1005566734
 20
-6.7753382253
 30
0.0
 40
0.157189562285834
100
AcDbArc
 50
275.5195838118
 51
345.9568132299
  0
ARC
  5
325
330
238
100
AcDbEntity
 67
     1
  8
0
  6
Continuous
 62
     8
370
    25
100
AcDbCircle
 10
-3.7896305285
 20
-2.9662636751
 30
0.0
 40
0.0999739762167238
100
AcDbArc
 50
174.1693867561
 51
234.5329403106
  0
ARC
  5
326
330
238
100
AcDbEntity
 67
     1
  8
0
  6
Continuous
 62
     8
370
    25
100
AcDbCircle
 10
8.256527211
 20
1.1754566829
 30
0.0
 40
0.1191926257393535
100
AcDbArc
 50
58.6237270035
 51
99.6159484118
  0
ARC
  5
327
330
238
100
AcDbEntity
 67
     1
  8
0
  6
Continuous
 62
     8
370
    25
100
AcDbCircle
 10
-1.8467294087
 20
3.1950600997
 30
0.0
 40
0.0786225516657038
100
AcDbArc
 50
61.4320377018
 51
102.5041985185
  0
ARC
  5
328
330
238
100
AcDbEntity
 67
     1
  8
0
  6
Continuous
 62
     8
370
    25
100
AcDbCircle
 10
-35.6094271896
 20
15.4029204053
 30
0.0
 40
0.0999822656558673
100
AcDbArc
 50
174.1707729796
 51
234.517046627
  0
ARC
  5
329
330
238
100
AcDbEntity
 67
     1
  8
0
  6
Continuous
 62
     8
370
    25
100
AcDbCircle
 10
-31.9694777391
 20
20.5845369753
 30
0.0
 40
0.0786381993232999
100
AcDbArc
 50
61.4921078517
 51
102.5020791902
  0
ARC
  5
32A
330
238
100
AcDbEntity
 67
     1
  8
0
  6
Continuous
 62
     8
370
    25
100
AcDbCircle
 10
20.3681096278
 20
3.422289302
 30
0.0
 40
0.1191997181172358
100
AcDbArc
 50
58.6243708944
 51
99.5885158243
  0
ARC
  5
32B
330
238
100
AcDbEntity
 67
     1
  8
0
  6
Continuous
 62
     8
370
    25
100
AcDbCircle
 10
22.3551824786
 20
-6.5223955303
 30
0.0
 40
0.1572062764964092
100
AcDbArc
 50
275.5529868662
 51
345.9548137472
  0
ARC
  5
32C
330
238
100
AcDbEntity
 67
     1
  8
0
  6
Continuous
 62
     8
370
    25
100
AcDbCircle
 10
28.5874980256
 20
6.3150409273
 30
0.0
 40
0.1035856229219426
100
AcDbArc
 50
55.2646848634
 51
112.6949620409
  0
ARC
  5
32D
330
238
100
AcDbEntity
 67
     1
  8
0
  6
Continuous
 62
     8
370
    25
100
AcDbCircle
 10
26.8695978441
 20
-6.9719655242
 30
0.0
 40
0.1697233754002067
100
AcDbArc
 50
260.7746229025
 51
341.2186981706
  0
ARC
  5
32E
330
238
100
AcDbEntity
 67
     1
  8
0
  6
Continuous
 62
     8
370
    25
100
AcDbCircle
 10
34.2104648961
 20
17.5142010048
 30
0.0
 40
0.1236874568416394
100
AcDbArc
 50
70.4838416066
 51
142.5924590671
  0
ARC
  5
32F
330
238
100
AcDbEntity
 67
     1
  8
0
  6
Continuous
 62
     8
370
    25
100
AcDbCircle
 10
31.052600662
 20
-0.2430824712
 30
0.0
 40
7.111048592626521
100
AcDbArc
 50
297.1242253181
 51
334.6831320528
  0
ARC
  5
330
330
238
100
AcDbEntity
 67
     1
  8
0
  6
Continuous
 62
     8
370
    25
100
AcDbCircle
 10
-33.0194584985
 20
26.0447491339
 30
0.0
 40
6.261580335415071
100
AcDbArc
 50
208.8333766236
 51
244.5633036563
  0
ARC
  5
331
330
238
100
AcDbEntity
 67
     1
  8
0
  6
Continuous
 62
     8
370
    25
100
AcDbCircle
 10
-35.5840962533
 20
25.8368434503
 30
0.0
 40
0.119201058570927
100
AcDbArc
 50
58.6244925831
 51
99.5833338426
  0
ARC
  5
332
330
238
100
AcDbEntity
 67
     1
  8
0
  6
Continuous
 62
     8
370
    25
100
AcDbCircle
 10
-32.9364497671
 20
21.4185419158
 30
0.0
 40
6.614534868085244
100
AcDbArc
 50
212.2996349701
 51
245.2194428122
  0
ARC
  5
333
330
238
100
AcDbEntity
 67
     1
  8
0
  6
Continuous
 62
     8
370
    25
100
AcDbCircle
 10
25.826697082
 20
-9.5478500365
 30
0.0
 40
2.676033313044897
100
AcDbArc
 50
355.3889988467
 51
55.9461110302
  0
ARC
  5
334
330
238
100
AcDbEntity
 67
     1
  8
0
  6
Continuous
 62
     8
370
    25
100
AcDbCircle
 10
21.969115768
 20
-8.264422717
 30
0.0
 40
3.838308491368271
100
AcDbArc
 50
0.7855159188
 51
21.2301629093
  0
ARC
  5
335
330
238
100
AcDbEntity
 67
     1
  8
0
  6
Continuous
 62
     8
370
    25
100
AcDbCircle
 10
25.8500042727
 20
-8.1191191371
 30
0.0
 40
0.1021468428864567
100
AcDbArc
 50
186.3648492821
 51
245.1412698604
  0
ARC
  5
336
330
238
100
AcDbEntity
 67
     1
  8
0
  6
Continuous
 62
     8
370
    25
100
AcDbCircle
 10
28.5914450874
 20
-9.7691349372
 30
0.0
 40
0.0975702821234743
100
AcDbArc
 50
176.3816053905
 51
234.9535044864
  0
ARC
  5
337
330
238
100
AcDbEntity
 67
     1
  8
0
  6
Continuous
 62
     8
370
    25
100
AcDbCircle
 10
28.6788290811
 20
-9.7682627784
 30
0.0
 40
0.0985955860160187
100
AcDbArc
 50
305.0133328803
 51
6.2988475131
  0
ARC
  5
338
330
238
100
AcDbEntity
 67
     1
  8
0
  6
Continuous
 62
     8
370
    25
100
AcDbCircle
 10
34.1966785071
 20
-6.5828761076
 30
0.0
 40
0.0985955860160417
100
AcDbArc
 50
305.0133328803
 51
6.298847513
  0
ARC
  5
339
330
238
100
AcDbEntity
 67
     1
  8
0
  6
Continuous
 62
     8
370
    25
100
AcDbCircle
 10
25.9044393189
 20
-8.2179595248
 30
0.0
 40
0.0975702821234561
100
AcDbArc
 50
176.3816053905
 51
234.9535044864
  0
ARC
  5
33A
330
238
100
AcDbEntity
 67
     1
  8
0
  6
Continuous
 62
     8
370
    25
100
AcDbCircle
 10
5.2186130814
 20
34.2513805904
 30
0.0
 40
0.1228175748942562
100
AcDbArc
 50
69.3770945785
 51
142.7595689121
  0
ARC
  5
33B
330
238
100
AcDbEntity
 67
     1
  8
0
  6
Continuous
 62
     8
370
    25
100
AcDbCircle
 10
-22.6239826683
 20
28.2410959014
 30
0.0
 40
0.1191997181172556
100
AcDbArc
 50
58.6243708944
 51
99.5885158243
  0
ARC
  5
33C
330
238
100
AcDbEntity
 67
     1
  8
0
  6
Continuous
 62
     8
370
    25
100
AcDbCircle
 10
-20.6369098176
 20
18.2964110691
 30
0.0
 40
0.1572062764963967
100
AcDbArc
 50
275.5529868662
 51
345.9548137472
  0
ARC
  5
33D
330
238
100
AcDbEntity
 67
     1
  8
0
  6
Continuous
 62
     8
370
    25
100
AcDbCircle
 10
-1.5312084855
 20
16.6018188099
 30
0.0
 40
0.0959051092983917
100
AcDbArc
 50
172.7441704438
 51
235.9436491628
  0
ARC
  5
33E
330
238
100
AcDbEntity
 67
     1
  8
0
  6
Continuous
 62
     8
370
    25
100
AcDbCircle
 10
-11.5890039982
 20
32.7066362394
 30
0.0
 40
0.1017095770854214
100
AcDbArc
 50
54.3588350069
 51
110.8685889157
  0
ARC
  5
33F
330
238
100
AcDbEntity
 67
     1
  8
0
  6
Continuous
 62
     8
370
    25
100
AcDbCircle
 10
-16.1260880639
 20
17.8528237826
 30
0.0
 40
0.1751098309339167
100
AcDbArc
 50
262.246796885
 51
339.743794353
  0
ARC
  5
340
330
238
100
AcDbEntity
 67
     1
  8
0
  6
Continuous
 62
     8
370
    25
100
AcDbCircle
 10
-17.1653952142
 20
15.2709565629
 30
0.0
 40
2.676033313044892
100
AcDbArc
 50
355.3889988467
 51
55.9461110302
  0
ARC
  5
341
330
238
100
AcDbEntity
 67
     1
  8
0
  6
Continuous
 62
     8
370
    25
100
AcDbCircle
 10
-21.0229765282
 20
16.5543838824
 30
0.0
 40
3.838308491368322
100
AcDbArc
 50
0.7855159188
 51
21.2301629093
  0
ARC
  5
342
330
238
100
AcDbEntity
 67
     1
  8
0
  6
Continuous
 62
     8
370
    25
100
AcDbCircle
 10
-11.6203563549
 20
16.6016720318
 30
0.0
 40
0.0953075963613785
100
AcDbArc
 50
302.6990713202
 51
7.3905340974
  0
ARC
  5
343
330
238
100
AcDbEntity
 67
     1
  8
0
  6
Continuous
 62
     8
370
    25
100
AcDbCircle
 10
-17.1419592851
 20
16.6998381231
 30
0.0
 40
0.1023376778423712
100
AcDbArc
 50
186.747211839
 51
245.111330757
  0
ARC
  5
344
330
238
100
AcDbEntity
 67
     1
  8
0
  6
Continuous
 62
     8
370
    25
100
AcDbCircle
 10
-14.3103999457
 20
15.0492483628
 30
0.0
 40
0.0959051092875108
100
AcDbArc
 50
304.0563508332
 51
7.2558295602
  0
ARC
  5
345
330
238
100
AcDbEntity
 67
     1
  8
0
  6
Continuous
 62
     8
370
    25
100
AcDbCircle
 10
-14.4006472087
 20
15.0496716622
 30
0.0
 40
0.0975702821234596
100
AcDbArc
 50
176.3816053905
 51
234.9535044864
  0
ARC
  5
346
330
238
100
AcDbEntity
 67
     1
  8
0
  6
Continuous
 62
     8
370
    25
100
AcDbCircle
 10
-17.0876529772
 20
16.6008470746
 30
0.0
 40
0.0975702821234344
100
AcDbArc
 50
176.3816053905
 51
234.9535044864
  0
VIEWPORT
  5
34D
330
238
100
AcDbEntity
 67
     1
  8
0
100
AcDbViewport
 10
0.0
 20
0.0
 30
0.0
 40
205.6
 41
156.0
 68
     1
 69
     1
 12
0.0
 22
0.0
 13
0.0
 23
0.0
 14
10.0
 24
10.0
 15
10.0
 25
10.0
 16
0.0
 26
0.0
 36
1.0
 17
0.0
 27
0.0
 37
0.0
 42
50.0
 43
0.0
 44
0.0
 45
57.12
 50
0.0
 51
0.0
 72
   100
 90
   557152
  1

281
     0
 71
     1
 74
     0
110
0.0
120
0.0
130
0.0
111
1.0
121
0.0
131
0.0
112
0.0
122
1.0
132
0.0
 79
     0
146
0.0
  0
ENDSEC
  0
SECTION
  2
OBJECTS
  0
DICTIONARY
  5
C
330
0
100
AcDbDictionary
281
     1
  3
ACAD_GROUP
350
D
  3
ACAD_LAYOUT
350
1A
  3
ACAD_MLINESTYLE
350
17
  3
ACAD_PLOTSETTINGS
350
19
  3
ACAD_PLOTSTYLENAME
350
E
  3
ACAD_SCALELIST
350
47
  0
DICTIONARY
  5
D
102
{ACAD_REACTORS
330
C
102
}
330
C
100
AcDbDictionary
281
     1
  0
DICTIONARY
  5
1A
102
{ACAD_REACTORS
330
C
102
}
330
C
100
AcDbDictionary
281
     1
  3
_Back
350
1C3
  3
_Front
350
1E
  3
_Isometric
350
239
  3
_Right
350
26
  3
Model
350
22
  0
DICTIONARY
  5
17
102
{ACAD_REACTORS
330
C
102
}
330
C
100
AcDbDictionary
281
     1
  3
Standard
350
18
  0
DICTIONARY
  5
19
102
{ACAD_REACTORS
330
C
102
}
330
C
100
AcDbDictionary
281
     1
  0
ACDBDICTIONARYWDFLT
  5
E
102
{ACAD_REACTORS
330
C
102
}
330
C
100
AcDbDictionary
281
     1
  3
Normal
350
F
100
AcDbDictionaryWithDefault
340
F
  0
DICTIONARY
  5
47
102
{ACAD_REACTORS
330
C
102
}
330
C
100
AcDbDictionary
281
     1
  3
A0
350
48
  3
A1
350
49
  3
A2
350
4A
  3
A3
350
4B
  3
A4
350
4C
  3
A5
350
4D
  3
A6
350
4E
  3
A7
350
4F
  3
A8
350
50
  3
A9
350
51
  3
B0
350
52
  3
B1
350
53
  3
B2
350
54
  3
B3
350
55
  3
B4
350
56
  3
B5
350
57
  3
B6
350
58
  3
B7
350
59
  3
B8
350
5A
  3
B9
350
5B
  3
C0
350
5C
  3
C1
350
5D
  3
C2
350
5E
  3
C3
350
5F
  3
C4
350
60
  3
C5
350
61
  3
C6
350
62
  3
C7
350
63
  3
C8
350
64
  3
C9
350
65
  3
D0
350
66
  3
D1
350
67
  3
D2
350
68
  0
LAYOUT
  5
1C3
102
{ACAD_REACTORS
330
1A
102
}
330
1A
100
AcDbPlotSettings
  1

  2
none_device
  4
ISO_A4_(210.00_x_297.00_MM)
  6

 40
7.5
 41
20.0
 42
7.5
 43
20.0
 44
210.0
 45
297.0
 46
0.0
 47
0.0
 48
0.0
 49
0.0
140
0.0
141
0.0
142
1.0
143
0.2529182879
 70
   688
 72
     1
 73
     1
 74
     1
  7

 75
     0
147
3.9538461538
148
32.5
149
0.0
100
AcDbLayout
  1
_Back
 70
     1
 71
     3
 10
0.0
 20
0.0
 11
0.0
 21
0.0
 12
0.0
 22
0.0
 32
0.0
 14
0.0
 24
0.0
 34
0.0
 15
0.0
 25
0.0
 35
0.0
146
0.0
 13
0.0
 23
0.0
 33
0.0
 16
1.0
 26
0.0
 36
0.0
 17
0.0
 27
1.0
 37
0.0
 76
     0
330
1C2
331
34B
  0
LAYOUT
  5
1E
102
{ACAD_REACTORS
330
1A
102
}
330
1A
100
AcDbPlotSettings
  1

  2
none_device
  4
ISO_A4_(210.00_x_297.00_MM)
  6

 40
7.5
 41
20.0
 42
7.5
 43
20.0
 44
210.0
 45
297.0
 46
0.0
 47
0.0
 48
0.0
 49
0.0
140
0.0
141
0.0
142
1.0
143
0.2529182879
 70
   688
 72
     1
 73
     1
 74
     1
  7

 75
     0
147
3.9538461538
148
32.5
149
0.0
100
AcDbLayout
  1
_Front
 70
     1
 71
     1
 10
-37.5583657588
 20
-1.8968871595
 11
37.5583657588
 21
51.2159533074
 12
0.0
 22
0.0
 32
0.0
 14
1.0000000000E+20
 24
1.0000000000E+20
 34
1.0000000000E+20
 15
-1.0000000000E+20
 25
-1.0000000000E+20
 35
-1.0000000000E+20
146
0.0
 13
0.0
 23
0.0
 33
0.0
 16
1.0
 26
0.0
 36
0.0
 17
0.0
 27
1.0
 37
0.0
 76
     0
330
1B
331
347
  0
LAYOUT
  5
239
102
{ACAD_REACTORS
330
1A
102
}
330
1A
100
AcDbPlotSettings
  1

  2
none_device
  4
ANSI_A_(11.00_x_8.50_Inches)
  6

 40
6.35
 41
19.05
 42
6.35000508
 43
19.05000254
 44
279.4
 45
215.9
 46
133.34999746
 47
88.89999873
 48
0.0
 49
0.0
140
0.0
141
0.0
142
0.1502678571
143
1.0
 70
  1696
 72
     0
 73
     0
 74
     1
  7

 75
     0
147
0.1249999982
148
825.5
149
711.2
100
AcDbLayout
  1
_Isometric
 70
     1
 71
     4
 10
0.0
 20
0.0
 11
0.0
 21
0.0
 12
0.0
 22
0.0
 32
0.0
 14
-32.5
 24
-28.0
 34
0.0
 15
32.5
 25
28.0
 35
0.0
146
0.0
 13
0.0
 23
0.0
 33
0.0
 16
1.0
 26
0.0
 36
0.0
 17
0.0
 27
1.0
 37
0.0
 76
     0
330
238
331
34D
  0
LAYOUT
  5
26
102
{ACAD_REACTORS
330
1A
102
}
330
1A
100
AcDbPlotSettings
  1

  2
none_device
  4
ISO_A4_(210.00_x_297.00_MM)
  6

 40
7.5
 41
20.0
 42
7.5
 43
20.0
 44
210.0
 45
297.0
 46
0.0
 47
0.0
 48
0.0
 49
0.0
140
0.0
141
0.0
142
1.0
143
0.2529182879
 70
   688
 72
     1
 73
     1
 74
     1
  7

 75
     0
147
3.9538461538
148
32.5
149
0.0
100
AcDbLayout
  1
_Right
 70
     1
 71
     2
 10
0.0
 20
0.0
 11
0.0
 21
0.0
 12
0.0
 22
0.0
 32
0.0
 14
0.0
 24
0.0
 34
0.0
 15
0.0
 25
0.0
 35
0.0
146
0.0
 13
0.0
 23
0.0
 33
0.0
 16
1.0
 26
0.0
 36
0.0
 17
0.0
 27
1.0
 37
0.0
 76
     0
330
23
331
349
  0
LAYOUT
  5
22
102
{ACAD_REACTORS
330
1A
102
}
330
1A
100
AcDbPlotSettings
  1

  2
none_device
  4
Letter_(8.50_x_11.00_Inches)
  6

 40
6.35
 41
6.35
 42
6.35000508
 43
6.35000508
 44
215.9
 45
279.4
 46
0.0
 47
0.0
 48
0.0
 49
0.0
140
0.0
141
0.0
142
1.0
143
1.0
 70
  1712
 72
     1
 73
     0
 74
     0
  7

 75
     0
147
1.0
148
0.0
149
0.0
100
AcDbLayout
  1
Model
 70
     1
 71
     0
 10
0.0
 20
0.0
 11
420.0
 21
297.0
 12
0.0
 22
0.0
 32
0.0
 14
-32.5
 24
-28.0
 34
0.0
 15
32.5
 25
28.0
 35
0.0
146
0.0
 13
0.0
 23
0.0
 33
0.0
 16
1.0
 26
0.0
 36
0.0
 17
0.0
 27
1.0
 37
0.0
 76
     0
330
1F
331
29
  0
MLINESTYLE
  5
18
102
{ACAD_REACTORS
330
17
102
}
330
17
100
AcDbMlineStyle
  2
Standard
 70
     0
  3

 62
   256
 51
90.0
 52
90.0
 71
     2
 49
0.5
 62
   256
  6
BYLAYER
 49
-0.5
 62
   256
  6
BYLAYER
  0
ACDBPLACEHOLDER
  5
F
102
{ACAD_REACTORS
330
E
102
}
330
E
  0
SCALE
  5
48
102
{ACAD_REACTORS
330
47
102
}
330
47
100
AcDbScale
 70
     0
300
1:1
140
1.0
141
1.0
290
     1
  0
SCALE
  5
49
102
{ACAD_REACTORS
330
47
102
}
330
47
100
AcDbScale
 70
     0
300
1:2
140
1.0
141
2.0
290
     0
  0
SCALE
  5
4A
102
{ACAD_REACTORS
330
47
102
}
330
47
100
AcDbScale
 70
     0
300
1:4
140
1.0
141
4.0
290
     0
  0
SCALE
  5
4B
102
{ACAD_REACTORS
330
47
102
}
330
47
100
AcDbScale
 70
     0
300
1:5
140
1.0
141
5.0
290
     0
  0
SCALE
  5
4C
102
{ACAD_REACTORS
330
47
102
}
330
47
100
AcDbScale
 70
     0
300
1:8
140
1.0
141
8.0
290
     0
  0
SCALE
  5
4D
102
{ACAD_REACTORS
330
47
102
}
330
47
100
AcDbScale
 70
     0
300
1:10
140
1.0
141
10.0
290
     0
  0
SCALE
  5
4E
102
{ACAD_REACTORS
330
47
102
}
330
47
100
AcDbScale
 70
     0
300
1:16
140
1.0
141
16.0
290
     0
  0
SCALE
  5
4F
102
{ACAD_REACTORS
330
47
102
}
330
47
100
AcDbScale
 70
     0
300
1:20
140
1.0
141
20.0
290
     0
  0
SCALE
  5
50
102
{ACAD_REACTORS
330
47
102
}
330
47
100
AcDbScale
 70
     0
300
1:30
140
1.0
141
30.0
290
     0
  0
SCALE
  5
51
102
{ACAD_REACTORS
330
47
102
}
330
47
100
AcDbScale
 70
     0
300
1:40
140
1.0
141
40.0
290
     0
  0
SCALE
  5
52
102
{ACAD_REACTORS
330
47
102
}
330
47
100
AcDbScale
 70
     0
300
1:50
140
1.0
141
50.0
290
     0
  0
SCALE
  5
53
102
{ACAD_REACTORS
330
47
102
}
330
47
100
AcDbScale
 70
     0
300
1:100
140
1.0
141
100.0
290
     0
  0
SCALE
  5
54
102
{ACAD_REACTORS
330
47
102
}
330
47
100
AcDbScale
 70
     0
300
2:1
140
2.0
141
1.0
290
     0
  0
SCALE
  5
55
102
{ACAD_REACTORS
330
47
102
}
330
47
100
AcDbScale
 70
     0
300
4:1
140
4.0
141
1.0
290
     0
  0
SCALE
  5
56
102
{ACAD_REACTORS
330
47
102
}
330
47
100
AcDbScale
 70
     0
300
8:1
140
8.0
141
1.0
290
     0
  0
SCALE
  5
57
102
{ACAD_REACTORS
330
47
102
}
330
47
100
AcDbScale
 70
     0
300
10:1
140
10.0
141
1.0
290
     0
  0
SCALE
  5
58
102
{ACAD_REACTORS
330
47
102
}
330
47
100
AcDbScale
 70
     0
300
100:1
140
100.0
141
1.0
290
     0
  0
SCALE
  5
59
102
{ACAD_REACTORS
330
47
102
}
330
47
100
AcDbScale
 70
     0
300
1/128" = 1'-0"
140
0.0078125
141
12.0
290
     0
  0
SCALE
  5
5A
102
{ACAD_REACTORS
330
47
102
}
330
47
100
AcDbScale
 70
     0
300
1/64" = 1'-0"
140
0.015625
141
12.0
290
     0
  0
SCALE
  5
5B
102
{ACAD_REACTORS
330
47
102
}
330
47
100
AcDbScale
 70
     0
300
1/32" = 1'-0"
140
0.03125
141
12.0
290
     0
  0
SCALE
  5
5C
102
{ACAD_REACTORS
330
47
102
}
330
47
100
AcDbScale
 70
     0
300
1/16" = 1'-0"
140
0.0625
141
12.0
290
     0
  0
SCALE
  5
5D
102
{ACAD_REACTORS
330
47
102
}
330
47
100
AcDbScale
 70
     0
300
3/32" = 1'-0"
140
0.09375
141
12.0
290
     0
  0
SCALE
  5
5E
102
{ACAD_REACTORS
330
47
102
}
330
47
100
AcDbScale
 70
     0
300
1/8" = 1'-0"
140
0.125
141
12.0
290
     0
  0
SCALE
  5
5F
102
{ACAD_REACTORS
330
47
102
}
330
47
100
AcDbScale
 70
     0
300
3/16" = 1'-0"
140
0.1875
141
12.0
290
     0
  0
SCALE
  5
60
102
{ACAD_REACTORS
330
47
102
}
330
47
100
AcDbScale
 70
     0
300
1/4" = 1'-0"
140
0.25
141
12.0
290
     0
  0
SCALE
  5
61
102
{ACAD_REACTORS
330
47
102
}
330
47
100
AcDbScale
 70
     0
300
3/8" = 1'-0"
140
0.375
141
12.0
290
     0
  0
SCALE
  5
62
102
{ACAD_REACTORS
330
47
102
}
330
47
100
AcDbScale
 70
     0
300
1/2" = 1'-0"
140
0.5
141
12.0
290
     0
  0
SCALE
  5
63
102
{ACAD_REACTORS
330
47
102
}
330
47
100
AcDbScale
 70
     0
300
3/4" = 1'-0"
140
0.75
141
12.0
290
     0
  0
SCALE
  5
64
102
{ACAD_REACTORS
330
47
102
}
330
47
100
AcDbScale
 70
     0
300
1" = 1'-0"
140
1.0
141
12.0
290
     0
  0
SCALE
  5
65
102
{ACAD_REACTORS
330
47
102
}
330
47
100
AcDbScale
 70
     0
300
1-1/2" = 1'-0"
140
1.5
141
12.0
290
     0
  0
SCALE
  5
66
102
{ACAD_REACTORS
330
47
102
}
330
47
100
AcDbScale
 70
     0
300
3" = 1'-0"
140
3.0
141
12.0
290
     0
  0
SCALE
  5
67
102
{ACAD_REACTORS
330
47
102
}
330
47
100
AcDbScale
 70
     0
300
6" = 1'-0"
140
6.0
141
12.0
290
     0
  0
SCALE
  5
68
102
{ACAD_REACTORS
330
47
102
}
330
47
100
AcDbScale
 70
     0
300
1'-0" = 1'-0"
140
12.0
141
12.0
290
     0
  0
ENDSEC
  0
EOF
